  0
SECTION
  2
HEADER
  9
$ACADVER
  1
AC1021
  9
$ACADMAINTVER
 70
    50
  9
$DWGCODEPAGE
  3
ANSI_1252
  9
$AUTHOR
  1
marcel
  9
$LASTSAVEDBY
  1
marcel
  9
$INSBASE
 10
0.0
 20
0.0
 30
0.0
  9
$EXTMIN
 10
209117.194
 20
437659.306
 30
0.0
  9
$EXTMAX
 10
209693.373
 20
438018.532
 30
0.0
  9
$LIMMIN
 10
208047.306241
 20
436480.941741
  9
$LIMMAX
 10
210763.260759
 20
439196.896259
  9
$ORTHOMODE
 70
     0
  9
$REGENMODE
 70
     1
  9
$FILLMODE
 70
     1
  9
$QTEXTMODE
 70
     0
  9
$MIRRTEXT
 70
     0
  9
$LTSCALE
 40
1.0
  9
$ATTMODE
 70
     1
  9
$TEXTSIZE
 40
1.25
  9
$TRACEWID
 40
0.05
  9
$TEXTSTYLE
  7
Standard
  9
$CLAYER
  8
0
  9
$CELTYPE
  6
ByLayer
  9
$CECOLOR
 62
   256
  9
$CELTSCALE
 40
1.0
  9
$DISPSILH
 70
     0
  9
$DIMSCALE
 40
1.0
  9
$DIMASZ
 40
0.18
  9
$DIMEXO
 40
0.0625
  9
$DIMDLI
 40
0.38
  9
$DIMRND
 40
0.0
  9
$DIMDLE
 40
0.0
  9
$DIMEXE
 40
0.18
  9
$DIMTP
 40
0.0
  9
$DIMTM
 40
0.0
  9
$DIMTXT
 40
0.18
  9
$DIMCEN
 40
0.09
  9
$DIMTSZ
 40
0.0
  9
$DIMTOL
 70
     0
  9
$DIMLIM
 70
     0
  9
$DIMTIH
 70
     1
  9
$DIMTOH
 70
     1
  9
$DIMSE1
 70
     0
  9
$DIMSE2
 70
     0
  9
$DIMTAD
 70
     0
  9
$DIMZIN
 70
     0
  9
$DIMBLK
  1

  9
$DIMASO
 70
     1
  9
$DIMSHO
 70
     1
  9
$DIMPOST
  1

  9
$DIMAPOST
  1

  9
$DIMALT
 70
     0
  9
$DIMALTD
 70
     2
  9
$DIMALTF
 40
25.4
  9
$DIMLFAC
 40
1.0
  9
$DIMTOFL
 70
     0
  9
$DIMTVP
 40
0.0
  9
$DIMTIX
 70
     0
  9
$DIMSOXD
 70
     0
  9
$DIMSAH
 70
     0
  9
$DIMBLK1
  1

  9
$DIMBLK2
  1

  9
$DIMSTYLE
  2
Standard
  9
$DIMCLRD
 70
     0
  9
$DIMCLRE
 70
     0
  9
$DIMCLRT
 70
     0
  9
$DIMTFAC
 40
1.0
  9
$DIMGAP
 40
0.09
  9
$DIMJUST
 70
     0
  9
$DIMSD1
 70
     0
  9
$DIMSD2
 70
     0
  9
$DIMTOLJ
 70
     1
  9
$DIMTZIN
 70
     0
  9
$DIMALTZ
 70
     0
  9
$DIMALTTZ
 70
     0
  9
$DIMUPT
 70
     0
  9
$DIMDEC
 70
     4
  9
$DIMTDEC
 70
     4
  9
$DIMALTU
 70
     2
  9
$DIMALTTD
 70
     2
  9
$DIMTXSTY
  7
Standard
  9
$DIMAUNIT
 70
     0
  9
$DIMADEC
 70
     0
  9
$DIMALTRND
 40
0.0
  9
$DIMAZIN
 70
     0
  9
$DIMDSEP
 70
    46
  9
$DIMATFIT
 70
     3
  9
$DIMFRAC
 70
     0
  9
$DIMLDRBLK
  1

  9
$DIMLUNIT
 70
     2
  9
$DIMLWD
 70
    -2
  9
$DIMLWE
 70
    -2
  9
$DIMTMOVE
 70
     0
  9
$DIMFXL
 40
1.0
  9
$DIMFXLON
 70
     0
  9
$DIMJOGANG
 40
0.785398
  9
$DIMTFILL
 70
     0
  9
$DIMTFILLCLR
 70
     0
  9
$DIMARCSYM
 70
     0
  9
$DIMLTYPE
  6

  9
$DIMLTEX1
  6

  9
$DIMLTEX2
  6

  9
$LUNITS
 70
     2
  9
$LUPREC
 70
     3
  9
$SKETCHINC
 40
0.1
  9
$FILLETRAD
 40
0.0
  9
$AUNITS
 70
     0
  9
$AUPREC
 70
     4
  9
$MENU
  1
.
  9
$ELEVATION
 40
0.0
  9
$PELEVATION
 40
0.0
  9
$THICKNESS
 40
0.0
  9
$LIMCHECK
 70
     0
  9
$CHAMFERA
 40
0.0
  9
$CHAMFERB
 40
0.0
  9
$CHAMFERC
 40
0.0
  9
$CHAMFERD
 40
0.0
  9
$SKPOLY
 70
     0
  9
$TDCREATE
 40
2454144.861357350
  9
$TDUCREATE
 40
2454144.778024017
  9
$TDUPDATE
 40
2454144.862020359
  9
$TDUUPDATE
 40
2454144.778687026
  9
$TDINDWG
 40
0.0007271181
  9
$TDUSRTIMER
 40
0.0007269329
  9
$USRTIMER
 70
     1
  9
$ANGBASE
 50
0.0
  9
$ANGDIR
 70
     0
  9
$PDMODE
 70
     0
  9
$PDSIZE
 40
0.0
  9
$PLINEWID
 40
0.0
  9
$SPLFRAME
 70
     0
  9
$SPLINETYPE
 70
     6
  9
$SPLINESEGS
 70
     8
  9
$HANDSEED
  5
1687
  9
$SURFTAB1
 70
     6
  9
$SURFTAB2
 70
     6
  9
$SURFTYPE
 70
     6
  9
$SURFU
 70
     6
  9
$SURFV
 70
     6
  9
$UCSBASE
  2

  9
$UCSNAME
  2

  9
$UCSORG
 10
0.0
 20
0.0
 30
0.0
  9
$UCSXDIR
 10
1.0
 20
0.0
 30
0.0
  9
$UCSYDIR
 10
0.0
 20
1.0
 30
0.0
  9
$UCSORTHOREF
  2

  9
$UCSORTHOVIEW
 70
     0
  9
$UCSORGTOP
 10
0.0
 20
0.0
 30
0.0
  9
$UCSORGBOTTOM
 10
0.0
 20
0.0
 30
0.0
  9
$UCSORGLEFT
 10
0.0
 20
0.0
 30
0.0
  9
$UCSORGRIGHT
 10
0.0
 20
0.0
 30
0.0
  9
$UCSORGFRONT
 10
0.0
 20
0.0
 30
0.0
  9
$UCSORGBACK
 10
0.0
 20
0.0
 30
0.0
  9
$PUCSBASE
  2

  9
$PUCSNAME
  2

  9
$PUCSORG
 10
0.0
 20
0.0
 30
0.0
  9
$PUCSXDIR
 10
1.0
 20
0.0
 30
0.0
  9
$PUCSYDIR
 10
0.0
 20
1.0
 30
0.0
  9
$PUCSORTHOREF
  2

  9
$PUCSORTHOVIEW
 70
     0
  9
$PUCSORGTOP
 10
0.0
 20
0.0
 30
0.0
  9
$PUCSORGBOTTOM
 10
0.0
 20
0.0
 30
0.0
  9
$PUCSORGLEFT
 10
0.0
 20
0.0
 30
0.0
  9
$PUCSORGRIGHT
 10
0.0
 20
0.0
 30
0.0
  9
$PUCSORGFRONT
 10
0.0
 20
0.0
 30
0.0
  9
$PUCSORGBACK
 10
0.0
 20
0.0
 30
0.0
  9
$USERI1
 70
     0
  9
$USERI2
 70
     0
  9
$USERI3
 70
     0
  9
$USERI4
 70
     0
  9
$USERI5
 70
     0
  9
$USERR1
 40
0.0
  9
$USERR2
 40
0.0
  9
$USERR3
 40
0.0
  9
$USERR4
 40
0.0
  9
$USERR5
 40
0.0
  9
$WORLDVIEW
 70
     1
  9
$SHADEDGE
 70
     3
  9
$SHADEDIF
 70
    70
  9
$TILEMODE
 70
     1
  9
$MAXACTVP
 70
    64
  9
$PINSBASE
 10
0.0
 20
0.0
 30
0.0
  9
$PLIMCHECK
 70
     0
  9
$PEXTMIN
 10
1.049744
 20
0.799667
 30
-0.001526
  9
$PEXTMAX
 10
9.450623
 20
7.200577
 30
0.0
  9
$PLIMMIN
 10
-0.25
 20
-0.25
  9
$PLIMMAX
 10
10.75
 20
8.25
  9
$UNITMODE
 70
     0
  9
$VISRETAIN
 70
     1
  9
$PLINEGEN
 70
     0
  9
$PSLTSCALE
 70
     0
  9
$TREEDEPTH
 70
  3020
  9
$CMLSTYLE
  2
Standard
  9
$CMLJUST
 70
     0
  9
$CMLSCALE
 40
1.0
  9
$PROXYGRAPHICS
 70
     1
  9
$MEASUREMENT
 70
     0
  9
$CELWEIGHT
370
    -1
  9
$ENDCAPS
280
     0
  9
$JOINSTYLE
280
     0
  9
$LWDISPLAY
290
     1
  9
$INSUNITS
 70
     6
  9
$HYPERLINKBASE
  1

  9
$STYLESHEET
  1

  9
$XEDIT
290
     1
  9
$CEPSNTYPE
380
     0
  9
$PSTYLEMODE
290
     1
  9
$FINGERPRINTGUID
  2
{607E5173-6070-4C49-B694-01D39F793C88}
  9
$VERSIONGUID
  2
{82C521FC-BF81-46B3-825E-420B6BD93A99}
  9
$EXTNAMES
290
     1
  9
$PSVPSCALE
 40
0.0
  9
$OLESTARTUP
290
     0
  9
$SORTENTS
280
   127
  9
$INDEXCTL
280
     0
  9
$HIDETEXT
280
     1
  9
$XCLIPFRAME
290
     0
  9
$HALOGAP
280
     0
  9
$OBSCOLOR
 70
   257
  9
$OBSLTYPE
280
     0
  9
$INTERSECTIONDISPLAY
280
     0
  9
$INTERSECTIONCOLOR
 70
   257
  9
$DIMASSOC
280
     1
  9
$PROJECTNAME
  1

  9
$CAMERADISPLAY
290
     0
  9
$LENSLENGTH
 40
50.0
  9
$CAMERAHEIGHT
 40
0.0
  9
$STEPSPERSEC
 40
2.0
  9
$STEPSIZE
 40
6.0
  9
$3DDWFPREC
 40
2.0
  9
$PSOLWIDTH
 40
0.25
  9
$PSOLHEIGHT
 40
4.0
  9
$LOFTANG1
 40
1.570796
  9
$LOFTANG2
 40
1.570796
  9
$LOFTMAG1
 40
0.0
  9
$LOFTMAG2
 40
0.0
  9
$LOFTPARAM
 70
     7
  9
$LOFTNORMALS
280
     1
  9
$LATITUDE
 40
37.795
  9
$LONGITUDE
 40
-122.394
  9
$NORTHDIRECTION
 40
0.0
  9
$TIMEZONE
 70
 -8000
  9
$LIGHTGLYPHDISPLAY
280
     1
  9
$TILEMODELIGHTSYNCH
280
     1
  9
$CMATERIAL
347
1587
  9
$SOLIDHIST
280
     1
  9
$SHOWHIST
280
     1
  9
$DWFFRAME
280
     2
  9
$DGNFRAME
280
     0
  9
$REALWORLDSCALE
290
     1
  9
$INTERFERECOLOR
 62
     1
  9
$INTERFEREOBJVS
345
159D
  9
$INTERFEREVPVS
346
159E
  9
$CSHADOW
280
     0
  9
$SHADOWPLANELOCATION
 40
0.0
  0
ENDSEC
  0
SECTION
  2
CLASSES
  0
CLASS
  1
ACDBDICTIONARYWDFLT
  2
AcDbDictionaryWithDefault
  3
ObjectDBX Classes
 90
        0
 91
        1
280
     0
281
     0
  0
CLASS
  1
DICTIONARYVAR
  2
AcDbDictionaryVar
  3
ObjectDBX Classes
 90
        0
 91
        7
280
     0
281
     0
  0
CLASS
  1
TABLESTYLE
  2
AcDbTableStyle
  3
ObjectDBX Classes
 90
     4095
 91
        1
280
     0
281
     0
  0
CLASS
  1
MATERIAL
  2
AcDbMaterial
  3
ObjectDBX Classes
 90
     1153
 91
        3
280
     0
281
     0
  0
CLASS
  1
VISUALSTYLE
  2
AcDbVisualStyle
  3
ObjectDBX Classes
 90
     4095
 91
       19
280
     0
281
     0
  0
CLASS
  1
SCALE
  2
AcDbScale
  3
ObjectDBX Classes
 90
     1153
 91
       33
280
     0
281
     0
  0
CLASS
  1
MLEADERSTYLE
  2
AcDbMLeaderStyle
  3
ACDB_MLEADERSTYLE_CLASS
 90
     4095
 91
        1
280
     0
281
     0
  0
CLASS
  1
CELLSTYLEMAP
  2
AcDbCellStyleMap
  3
ObjectDBX Classes
 90
     1152
 91
        2
280
     0
281
     0
  0
ENDSEC
  0
SECTION
  2
TABLES
  0
TABLE
  2
VPORT
  5
157B
330
0
100
AcDbSymbolTable
 70
     1
  0
VPORT
  5
49
330
157B
100
AcDbSymbolTableRecord
100
AcDbViewportTableRecord
  2
*ACTIVE
 70
     0
 10
0.0
 20
0.0
 11
1.0
 21
1.0
 12
209383.051109
 22
437842.001345
 13
0.0
 23
0.0
 14
1.0
 24
1.0
 15
5.0
 25
5.0
 16
0.0
 26
0.0
 36
1.0
 17
0.0
 27
0.0
 37
0.0
 40
54.823855
 41
1.921507
 42
50.0
 43
0.0
 44
0.0
 50
0.0
 51
0.0
 71
     0
 72
   100
 73
     1
 74
     0
 75
     0
 76
     0
 77
     0
 78
     1
281
     0
 65
     1
110
0.0
120
0.0
130
0.0
111
1.0
121
0.0
131
0.0
112
0.0
122
1.0
132
0.0
 79
     0
146
0.0
348
157D
 60
     3
 61
     5
292
     1
282
     1
141
0.0
142
0.0
 63
   250
421
  3355443
  0
ENDTAB
  0
TABLE
  2
LTYPE
  5
1576
330
0
100
AcDbSymbolTable
 70
     1
  0
LTYPE
  5
1577
330
1576
100
AcDbSymbolTableRecord
100
AcDbLinetypeTableRecord
  2
ByBlock
 70
     0
  3

 72
    65
 73
     0
 40
0.0
  0
LTYPE
  5
1578
330
1576
100
AcDbSymbolTableRecord
100
AcDbLinetypeTableRecord
  2
ByLayer
 70
     0
  3

 72
    65
 73
     0
 40
0.0
  0
LTYPE
  5
1565
330
1576
100
AcDbSymbolTableRecord
100
AcDbLinetypeTableRecord
  2
Continuous
 70
     0
  3
Solid line
 72
    65
 73
     0
 40
0.0
  0
ENDTAB
  0
TABLE
  2
LAYER
  5
1570
102
{ACAD_XDICTIONARY
360
1571
102
}
330
0
100
AcDbSymbolTable
 70
    29
  0
LAYER
  5
1558
330
1570
100
AcDbSymbolTableRecord
100
AcDbLayerTableRecord
  2
0
 70
     0
 62
     5
  6
Continuous
370
    40
390
1559
347
155C
  0
LAYER
  5
F27
330
1570
100
AcDbSymbolTableRecord
100
AcDbLayerTableRecord
  2
B-XX-KG-GRENS_PERCEEL-GV
 70
     0
 62
     5
  6
Continuous
370
     0
390
1559
347
155C
  0
LAYER
  5
FAA
330
1570
100
AcDbSymbolTableRecord
100
AcDbLayerTableRecord
  2
- Schets
 70
     0
 62
     5
  6
Continuous
370
    40
390
1559
347
155C
  0
LAYER
  5
1152
330
1570
100
AcDbSymbolTableRecord
100
AcDbLayerTableRecord
  2
Bestemmingsplangebied
 70
     0
 62
     7
  6
Continuous
370
     0
390
1559
347
155C
  0
LAYER
  5
115E
330
1570
100
AcDbSymbolTableRecord
100
AcDbLayerTableRecord
  2
EB_Water
 70
     0
 62
     7
  6
Continuous
370
     0
390
1559
347
155C
  0
LAYER
  5
116D
330
1570
100
AcDbSymbolTableRecord
100
AcDbLayerTableRecord
  2
EB_Wonen
 70
     0
 62
     7
  6
Continuous
370
     0
390
1559
347
155C
  0
LAYER
  5
119F
330
1570
100
AcDbSymbolTableRecord
100
AcDbLayerTableRecord
  2
Waarde - Archeologische Verwachting 1
 70
     0
 62
     7
  6
Continuous
370
     0
390
1559
347
155C
  0
LAYER
  5
11AB
330
1570
100
AcDbSymbolTableRecord
100
AcDbLayerTableRecord
  2
Gebiedsaanduiding
 70
     0
 62
     7
  6
Continuous
370
     0
390
1559
347
155C
  0
LAYER
  5
12AE
330
1570
100
AcDbSymbolTableRecord
100
AcDbLayerTableRecord
  2
RoPlan_Legenda_Systeem_Level
 70
     0
 62
     7
  6
Continuous
370
     0
390
1559
347
155C
  0
LAYER
  5
12AF
330
1570
100
AcDbSymbolTableRecord
100
AcDbLayerTableRecord
  2
Kader
 70
     0
 62
     7
  6
Continuous
370
     0
390
1559
347
155C
  0
LAYER
  5
12BC
330
1570
100
AcDbSymbolTableRecord
100
AcDbLayerTableRecord
  2
Onderhoek
 70
     0
 62
     7
  6
Continuous
370
     0
390
1559
347
155C
  0
LAYER
  5
1316
330
1570
100
AcDbSymbolTableRecord
100
AcDbLayerTableRecord
  2
41
 70
     0
 62
   252
  6
Continuous
370
    13
390
1559
347
155C
  0
LAYER
  5
153B
330
1570
100
AcDbSymbolTableRecord
100
AcDbLayerTableRecord
  2
B-XX-OG-WATER_SLOOT-GV
 70
     0
 62
     7
  6
Continuous
370
     0
390
1559
347
155C
  0
LAYER
  5
153C
330
1570
100
AcDbSymbolTableRecord
100
AcDbLayerTableRecord
  2
B-XX-GR-GROENVOORZIENING-GV
 70
     0
 62
     7
  6
Continuous
370
     0
390
1559
347
155C
  0
LAYER
  5
153D
330
1570
100
AcDbSymbolTableRecord
100
AcDbLayerTableRecord
  2
B-XX-VH-VERHARDING_OPEN-GV
 70
     0
 62
     7
  6
Continuous
370
     0
390
1559
347
155C
  0
LAYER
  5
153E
330
1570
100
AcDbSymbolTableRecord
100
AcDbLayerTableRecord
  2
B-XX-VH-ONVERHARD-GV
 70
     0
 62
     7
  6
Continuous
370
     0
390
1559
347
155C
  0
LAYER
  5
153F
330
1570
100
AcDbSymbolTableRecord
100
AcDbLayerTableRecord
  2
B-XX-OG-TOPOGRAFIE-T18
 70
     0
 62
     7
  6
Continuous
370
     0
390
1559
347
155C
  0
LAYER
  5
1540
330
1570
100
AcDbSymbolTableRecord
100
AcDbLayerTableRecord
  2
B-XX-KW-KUNSTWERK_DEK-GV
 70
     0
 62
     7
  6
Continuous
370
     0
390
1559
347
155C
  0
LAYER
  5
1541
330
1570
100
AcDbSymbolTableRecord
100
AcDbLayerTableRecord
  2
B-XX-OG-BEBOUWING_LOODS-GV
 70
     0
 62
     7
  6
Continuous
370
     0
390
1559
347
155C
  0
LAYER
  5
1542
330
1570
100
AcDbSymbolTableRecord
100
AcDbLayerTableRecord
  2
B-XX-IE-TERREINAFSCHEIDING_KUNSTMATIG_HEKWERK-G
 70
     0
 62
     7
  6
Continuous
370
     0
390
1559
347
155C
  0
LAYER
  5
1543
330
1570
100
AcDbSymbolTableRecord
100
AcDbLayerTableRecord
  2
B-XX-OG-WATER-GV
 70
     0
 62
     7
  6
Continuous
370
     0
390
1559
347
155C
  0
LAYER
  5
1544
330
1570
100
AcDbSymbolTableRecord
100
AcDbLayerTableRecord
  2
B-XX-OG-WATER_GREPPEL-GV
 70
     0
 62
     7
  6
Continuous
370
     0
390
1559
347
155C
  0
LAYER
  5
1545
330
1570
100
AcDbSymbolTableRecord
100
AcDbLayerTableRecord
  2
B-XX-OG-WEG-GV
 70
     0
 62
     7
  6
Continuous
370
     0
390
1559
347
155C
  0
LAYER
  5
1546
330
1570
100
AcDbSymbolTableRecord
100
AcDbLayerTableRecord
  2
B-XX-VH-VERHARDING_GESLOTEN-GV
 70
     0
 62
     7
  6
Continuous
370
     0
390
1559
347
155C
  0
LAYER
  5
1547
330
1570
100
AcDbSymbolTableRecord
100
AcDbLayerTableRecord
  2
B-XX-GR-HOUTWAL-GV
 70
     0
 62
     7
  6
Continuous
370
     0
390
1559
347
155C
  0
LAYER
  5
1548
330
1570
100
AcDbSymbolTableRecord
100
AcDbLayerTableRecord
  2
B-XX-OG-TERREIN_CULTUURSCHEIDING-GV
 70
     0
 62
     7
  6
Continuous
370
     0
390
1559
347
155C
  0
LAYER
  5
1549
330
1570
100
AcDbSymbolTableRecord
100
AcDbLayerTableRecord
  2
B-XX-OG-TERREIN_ERF-GV
 70
     0
 62
     7
  6
Continuous
370
     0
390
1559
347
155C
  0
LAYER
  5
154A
330
1570
100
AcDbSymbolTableRecord
100
AcDbLayerTableRecord
  2
B-XX-OG-BEBOUWING-T18
 70
     0
 62
     7
  6
Continuous
370
     0
390
1559
347
155C
  0
LAYER
  5
154B
330
1570
100
AcDbSymbolTableRecord
100
AcDbLayerTableRecord
  2
B-XX-OG-BEBOUWING-GV
 70
     0
 62
     7
  6
Continuous
370
     0
390
1559
347
155C
  0
ENDTAB
  0
TABLE
  2
STYLE
  5
1573
330
0
100
AcDbSymbolTable
 70
     3
  0
STYLE
  5
1574
330
1573
100
AcDbSymbolTableRecord
100
AcDbTextStyleTableRecord
  2
Standard
 70
     0
 40
0.0
 41
1.0
 50
0.0
 71
     0
 42
1.25
  3
txt.shx
  4

  0
STYLE
  5
13E0
330
1573
100
AcDbSymbolTableRecord
100
AcDbTextStyleTableRecord
  2
NLCS-ISO-M-T18
 70
     0
 40
1.8
 41
1.0
 50
0.0
 71
     0
 42
0.2
  3
NLCS-ISO.ttf
  4

1001
ACAD
1000
NLCS-ISO
1071
       39
  0
STYLE
  5
14CA
330
1573
100
AcDbSymbolTableRecord
100
AcDbTextStyleTableRecord
  2
NLCS-ISO
 70
     0
 40
1.8
 41
1.0
 50
0.0
 71
     0
 42
0.2
  3
NLCS-ISO.ttf
  4

1001
ACAD
1000
NLCS-ISO
1071
       39
  0
ENDTAB
  0
TABLE
  2
VIEW
  5
1579
330
0
100
AcDbSymbolTable
 70
     0
  0
ENDTAB
  0
TABLE
  2
UCS
  5
157A
330
0
100
AcDbSymbolTable
 70
     0
  0
ENDTAB
  0
TABLE
  2
APPID
  5
157F
330
0
100
AcDbSymbolTable
 70
     4
  0
APPID
  5
1580
330
157F
100
AcDbSymbolTableRecord
100
AcDbRegAppTableRecord
  2
ACAD
 70
     0
  0
APPID
  5
156F
330
157F
100
AcDbSymbolTableRecord
100
AcDbRegAppTableRecord
  2
ACAD_PSEXT
 70
     0
  0
APPID
  5
13DC
330
157F
100
AcDbSymbolTableRecord
100
AcDbRegAppTableRecord
  2
AcadAnnotative
 70
     0
  0
APPID
  5
1686
330
157F
100
AcDbSymbolTableRecord
100
AcDbRegAppTableRecord
  2
ACAD_MLEADERVER
 70
     0
  0
ENDTAB
  0
TABLE
  2
DIMSTYLE
  5
1581
330
0
100
AcDbSymbolTable
 70
     1
100
AcDbDimStyleTable
 71
     1
340
1582
  0
DIMSTYLE
105
1582
330
1581
100
AcDbSymbolTableRecord
100
AcDbDimStyleTableRecord
  2
Standard
 70
     0
 41
0.18
140
0.18
141
0.09
340
1574
  0
ENDTAB
  0
TABLE
  2
BLOCK_RECORD
  5
1555
330
0
100
AcDbSymbolTable
 70
     0
  0
BLOCK_RECORD
  5
1556
330
1555
100
AcDbSymbolTableRecord
100
AcDbBlockTableRecord
  2
*Model_Space
340
1567
 70
     0
280
     1
281
     0
  0
BLOCK_RECORD
  5
1569
330
1555
100
AcDbSymbolTableRecord
100
AcDbBlockTableRecord
  2
*Paper_Space
340
156C
 70
     0
280
     1
281
     0
  0
ENDTAB
  0
ENDSEC
  0
SECTION
  2
BLOCKS
  0
BLOCK
  5
1557
330
1556
100
AcDbEntity
  8
0
100
AcDbBlockBegin
  2
*Model_Space
 70
     0
 10
0.0
 20
0.0
 30
0.0
  3
*Model_Space
  1

  0
ENDBLK
  5
1566
330
1556
100
AcDbEntity
  8
0
100
AcDbBlockEnd
  0
BLOCK
  5
156A
330
1569
100
AcDbEntity
 67
     1
  8
0
100
AcDbBlockBegin
  2
*Paper_Space
 70
     0
 10
0.0
 20
0.0
 30
0.0
  3
*Paper_Space
  1

  0
ENDBLK
  5
156B
330
1569
100
AcDbEntity
 67
     1
  8
0
100
AcDbBlockEnd
  0
ENDSEC
  0
SECTION
  2
ENTITIES
  0
LWPOLYLINE
  5
13BD
330
1556
100
AcDbEntity
  8
B-XX-OG-WATER_SLOOT-GV
100
AcDbPolyline
 90
        2
 70
   128
 43
0.0
 10
209676.232
 20
437874.888
 42
-1.021209
 10
209676.861
 20
437875.47
  0
LWPOLYLINE
  5
13BF
330
1556
100
AcDbEntity
  8
B-XX-GR-GROENVOORZIENING-GV
100
AcDbPolyline
 90
       18
 70
   129
 43
0.0
 10
209671.835
 20
437878.464
 10
209669.484
 20
437879.023
 10
209669.334
 20
437876.832
 10
209658.019
 20
437850.85
 10
209645.751
 20
437824.346
 10
209631.153
 20
437792.805
 10
209614.898
 20
437758.868
 10
209601.422
 20
437730.835
 10
209601.805
 20
437730.644
 10
209602.502
 20
437730.291
 10
209609.111
 20
437743.82
 10
209621.925
 20
437770.568
 10
209634.825
 20
437797.044
 10
209648.332
 20
437826.618
 10
209660.93
 20
437853.716
 10
209670.684
 20
437876.283
 10
209670.947
 20
437876.892
 10
209671.835
 20
437878.464
  0
LWPOLYLINE
  5
13C0
330
1556
100
AcDbEntity
  8
B-XX-GR-GROENVOORZIENING-GV
100
AcDbPolyline
 90
        2
 70
   128
 43
0.0
 10
209291.561
 20
437806.562
 42
-0.009803
 10
209291.412
 20
437806.61
  0
LWPOLYLINE
  5
13C2
330
1556
100
AcDbEntity
  8
B-XX-GR-GROENVOORZIENING-GV
100
AcDbPolyline
 90
        6
 70
   128
 43
0.0
 10
209291.412
 20
437806.61
 10
209272.873
 20
437810.685
 10
209272.907
 20
437811.425
 10
209263.335
 20
437813.647
 10
209261.526
 20
437814.067
 10
209223.42
 20
437822.47
  0
LWPOLYLINE
  5
13C3
330
1556
100
AcDbEntity
  8
B-XX-GR-GROENVOORZIENING-GV
100
AcDbPolyline
 90
        2
 70
   128
 43
0.0
 10
209223.42
 20
437822.47
 42
0.174412
 10
209223.553
 20
437820.238
  0
LWPOLYLINE
  5
13C5
330
1556
100
AcDbEntity
  8
B-XX-GR-GROENVOORZIENING-GV
100
AcDbPolyline
 90
        4
 70
   128
 43
0.0
 10
209223.553
 20
437820.238
 10
209224.503
 20
437820.081
 10
209289.874
 20
437805.882
 10
209290.871
 20
437805.733
  0
LWPOLYLINE
  5
13C6
330
1556
100
AcDbEntity
  8
B-XX-GR-GROENVOORZIENING-GV
100
AcDbPolyline
 90
        2
 70
   128
 43
0.0
 10
209290.871
 20
437805.733
 42
0.068494
 10
209291.561
 20
437806.562
  0
LWPOLYLINE
  5
13C8
330
1556
100
AcDbEntity
  8
B-XX-VH-VERHARDING_OPEN-GV
100
AcDbPolyline
 90
        5
 70
   129
 43
0.0
 10
209519.684
 20
437994.047
 10
209518.441
 20
437992.246
 10
209519.517
 20
437991.528
 10
209520.786
 20
437993.312
 10
209519.684
 20
437994.047
  0
LWPOLYLINE
  5
13C9
330
1556
100
AcDbEntity
  8
B-XX-GR-GROENVOORZIENING-GV
100
AcDbPolyline
 90
       23
 70
   129
 43
0.0
 10
209351.072
 20
437806.491
 10
209379.822
 20
437793.463
 10
209376.873
 20
437785.487
 10
209378.17
 20
437784.959
 10
209379.833
 20
437785.074
 10
209382.962
 20
437787.634
 10
209383.014
 20
437789.05
 10
209382.675
 20
437791.181
 10
209381.961
 20
437792.828
 10
209380.652
 20
437794.314
 10
209379.407
 20
437795.281
 10
209317.504
 20
437823.178
 10
209316.128
 20
437823.854
 10
209313.478
 20
437824.783
 10
209311.585
 20
437825.26
 10
209309.831
 20
437825.315
 10
209308.793
 20
437825.186
 10
209307.47
 20
437824.746
 10
209307.299
 20
437824.048
 10
209309.702
 20
437825.116
 10
209312.97
 20
437824.163
 10
209344.336
 20
437809.544
 10
209351.072
 20
437806.491
  0
LWPOLYLINE
  5
13CA
330
1556
100
AcDbEntity
  8
B-XX-GR-GROENVOORZIENING-GV
100
AcDbPolyline
 90
        6
 70
   129
 43
0.0
 10
209298.841
 20
437813.125
 10
209299.402
 20
437813.08
 10
209303.382
 20
437826.698
 10
209302.338
 20
437826.973
 10
209302.195
 20
437825.137
 10
209298.841
 20
437813.125
  0
LWPOLYLINE
  5
13CB
330
1556
100
AcDbEntity
  8
B-XX-GR-GROENVOORZIENING-GV
100
AcDbPolyline
 90
        8
 70
   129
 43
0.0
 10
209289.376
 20
437801.16
 10
209289.732
 20
437802.155
 10
209227.547
 20
437816.922
 10
209225.811
 20
437817.151
 10
209224.597
 20
437817.174
 10
209223.722
 20
437816.684
 10
209235.116
 20
437813.99
 10
209289.376
 20
437801.16
  0
LWPOLYLINE
  5
13CC
330
1556
100
AcDbEntity
  8
B-XX-VH-VERHARDING_OPEN-GV
100
AcDbPolyline
 90
        5
 70
   129
 43
0.0
 10
209555.831
 20
437967.298
 10
209556.933
 20
437969.228
 10
209554.213
 20
437971.035
 10
209552.126
 20
437969.77
 10
209555.831
 20
437967.298
  0
LWPOLYLINE
  5
13CD
330
1556
100
AcDbEntity
  8
B-XX-VH-VERHARDING_OPEN-GV
100
AcDbPolyline
 90
        7
 70
   129
 43
0.0
 10
209677.546
 20
437888.939
 10
209677.883
 20
437887.465
 10
209677.145
 20
437886.353
 10
209679.491
 20
437884.787
 10
209680.204
 20
437885.928
 10
209681.623
 20
437886.236
 10
209677.546
 20
437888.939
  0
LWPOLYLINE
  5
13CE
330
1556
100
AcDbEntity
  8
B-XX-GR-GROENVOORZIENING-GV
100
AcDbPolyline
 90
       10
 70
   129
 43
0.0
 10
209381.176
 20
437798.261
 10
209381.325
 20
437798.788
 10
209343.952
 20
437815.542
 10
209336.889
 20
437818.894
 10
209308.269
 20
437831.632
 10
209307.777
 20
437830.018
 10
209308.426
 20
437829.843
 10
209377.796
 20
437799.343
 10
209380.119
 20
437798.39
 10
209381.176
 20
437798.261
  0
LWPOLYLINE
  5
13CF
330
1556
100
AcDbEntity
  8
B-XX-GR-GROENVOORZIENING-GV
100
AcDbPolyline
 90
       12
 70
   129
 43
0.0
 10
209298.478
 20
437800.078
 10
209298.197
 20
437799.074
 10
209298.484
 20
437799.018
 10
209298.656
 20
437799.562
 10
209305.337
 20
437821.007
 10
209305.481
 20
437821.893
 10
209307.299
 20
437824.048
 10
209307.47
 20
437824.746
 10
209306.992
 20
437824.432
 10
209306.193
 20
437823.652
 10
209305.17
 20
437822.31
 10
209298.478
 20
437800.078
  0
LWPOLYLINE
  5
13D0
330
1556
100
AcDbEntity
  8
B-XX-VH-VERHARDING_OPEN-GV
100
AcDbPolyline
 90
        5
 70
   129
 43
0.0
 10
209693.373
 20
437875.525
 10
209692.526
 20
437879.005
 10
209688.185
 20
437881.861
 10
209684.212
 20
437881.637
 10
209693.373
 20
437875.525
  0
LWPOLYLINE
  5
13D1
330
1556
100
AcDbEntity
  8
B-XX-GR-GROENVOORZIENING-GV
100
AcDbPolyline
 90
       17
 70
   129
 43
0.0
 10
209675.666
 20
437874.143
 10
209675.25
 20
437875.396
 10
209674.71
 20
437876.45
 10
209673.478
 20
437874.428
 10
209671.652
 20
437871.432
 10
209666.11
 20
437859.678
 10
209657.421
 20
437840.246
 10
209635.8
 20
437793.76
 10
209624.183
 20
437769.19
 10
209610.817
 20
437741.887
 10
209604.591
 20
437727.429
 10
209605.763
 20
437726.799
 10
209620.261
 20
437757.271
 10
209642.128
 20
437803.523
 10
209661.327
 20
437844.923
 10
209672.245
 20
437868.694
 10
209675.666
 20
437874.143
  0
LWPOLYLINE
  5
13D2
330
1556
100
AcDbEntity
  8
B-XX-VH-ONVERHARD-GV
100
AcDbPolyline
 90
        9
 70
   129
 43
0.0
 10
209327.732
 20
437685.206
 10
209328.68
 20
437684.831
 10
209330.555
 20
437687.777
 10
209330.017
 20
437688.793
 10
209329.703
 20
437689.386
 10
209328.874
 20
437690.728
 10
209325.904
 20
437686.946
 10
209325.853
 20
437685.948
 10
209327.732
 20
437685.206
  0
LWPOLYLINE
  5
13D3
330
1556
100
AcDbEntity
  8
B-XX-GR-GROENVOORZIENING-GV
100
AcDbPolyline
 90
       13
 70
   128
 43
0.0
 10
209290.871
 20
437805.733
 10
209291.9
 20
437805.58
 10
209293.5
 20
437805.465
 10
209294.79
 20
437805.482
 10
209295.443
 20
437805.644
 10
209296.246
 20
437806.097
 10
209296.932
 20
437806.645
 10
209297.596
 20
437807.443
 10
209298.102
 20
437808.547
 10
209298.637
 20
437810.46
 10
209299.402
 20
437813.08
 10
209298.841
 20
437813.125
 10
209297.83
 20
437809.501
  0
LWPOLYLINE
  5
13D4
330
1556
100
AcDbEntity
  8
B-XX-GR-GROENVOORZIENING-GV
100
AcDbPolyline
 90
        2
 70
   128
 43
0.0
 10
209297.83
 20
437809.501
 42
-0.38411
 10
209291.561
 20
437806.562
  0
LWPOLYLINE
  5
13D6
330
1556
100
AcDbEntity
  8
B-XX-GR-GROENVOORZIENING-GV
100
AcDbPolyline
 90
        2
 70
   128
 43
0.0
 10
209291.561
 20
437806.562
 42
-0.068494
 10
209290.871
 20
437805.733
  0
LWPOLYLINE
  5
13D8
330
1556
100
AcDbEntity
  8
B-XX-GR-GROENVOORZIENING-GV
100
AcDbPolyline
 90
        4
 70
   128
 43
0.0
 10
209223.42
 20
437822.47
 10
209220.973
 20
437823.01
 10
209220.488
 20
437820.743
 10
209223.553
 20
437820.238
  0
LWPOLYLINE
  5
13D9
330
1556
100
AcDbEntity
  8
B-XX-GR-GROENVOORZIENING-GV
100
AcDbPolyline
 90
        2
 70
   128
 43
0.0
 10
209223.553
 20
437820.238
 42
-0.174412
 10
209223.42
 20
437822.47
  0
TEXT
  5
13E1
330
1556
100
AcDbEntity
  8
B-XX-OG-TOPOGRAFIE-T18
100
AcDbText
 10
209423.731428
 20
437912.166491
 30
0.0
 40
1.8
  1
Koningsweg
 50
74.0
  7
NLCS-ISO-M-T18
 72
     1
 11
209424.578
 21
437918.384
 31
0.0
100
AcDbText
 73
     2
  0
TEXT
  5
13E2
330
1556
100
AcDbEntity
  8
B-XX-OG-TOPOGRAFIE-T18
100
AcDbText
 10
209343.40166
 20
437699.992856
 30
0.0
 40
1.8
  1
Koningsweg
 50
58.5
  7
NLCS-ISO-M-T18
 72
     1
 11
209345.879
 21
437705.758
 31
0.0
100
AcDbText
 73
     2
  0
TEXT
  5
13E3
330
1556
100
AcDbEntity
  8
B-XX-OG-TOPOGRAFIE-T18
100
AcDbText
 10
209475.769581
 20
438016.284543
 30
0.0
 40
1.8
  1
Didamseweg
 50
326.4
  7
NLCS-ISO-M-T18
 72
     1
 11
209481.59
 21
438013.498
 31
0.0
100
AcDbText
 73
     2
  0
TEXT
  5
13E4
330
1556
100
AcDbEntity
  8
B-XX-OG-TOPOGRAFIE-T18
100
AcDbText
 10
209144.979253
 20
437976.761169
 30
0.0
 40
1.8
  1
Heideweg
 50
64.7
  7
NLCS-ISO-M-T18
 72
     1
 11
209146.281
 21
437981.621
 31
0.0
100
AcDbText
 73
     2
  0
LWPOLYLINE
  5
13E5
330
1556
100
AcDbEntity
  8
B-XX-KW-KUNSTWERK_DEK-GV
100
AcDbPolyline
 90
        5
 70
   129
 43
0.0
 10
209421.265
 20
437925.744
 10
209418.064
 20
437926.571
 10
209417.838
 20
437925.818
 10
209421.038
 20
437924.991
 10
209421.265
 20
437925.744
  0
LWPOLYLINE
  5
13E6
330
1556
100
AcDbEntity
  8
B-XX-OG-BEBOUWING_LOODS-GV
100
AcDbPolyline
 90
        5
 70
   129
 43
0.0
 10
209398.388
 20
437977.924
 10
209392.261
 20
437980.371
 10
209386.654
 20
437966.335
 10
209392.781
 20
437963.887
 10
209398.388
 20
437977.924
  0
LWPOLYLINE
  5
13E7
330
1556
100
AcDbEntity
  8
B-XX-OG-BEBOUWING_LOODS-GV
100
AcDbPolyline
 90
        5
 70
   129
 43
0.0
 10
209291.616
 20
437708.596
 10
209227.305
 20
437724.007
 10
209225.517
 20
437716.575
 10
209289.813
 20
437701.103
 10
209291.616
 20
437708.596
  0
LWPOLYLINE
  5
13E8
330
1556
100
AcDbEntity
  8
B-XX-OG-BEBOUWING_LOODS-GV
100
AcDbPolyline
 90
        5
 70
   129
 43
0.0
 10
209297.617
 20
437754.907
 10
209289.182
 20
437759.418
 10
209280.046
 20
437742.337
 10
209288.481
 20
437737.825
 10
209297.617
 20
437754.907
  0
LWPOLYLINE
  5
13E9
330
1556
100
AcDbEntity
  8
B-XX-OG-BEBOUWING_LOODS-GV
100
AcDbPolyline
 90
        5
 70
   129
 43
0.0
 10
209289.134
 20
437724.027
 10
209290.351
 20
437729.068
 10
209232.157
 20
437743.125
 10
209230.928
 20
437738.034
 10
209289.134
 20
437724.027
  0
LWPOLYLINE
  5
13EA
330
1556
100
AcDbEntity
  8
B-XX-IE-TERREINAFSCHEIDING_KUNSTMATIG_HEKWERK-G
100
AcDbPolyline
 90
        2
 70
   128
 43
0.0
 10
209147.034
 20
437975.141
 10
209154.415
 20
437991.904
  0
LWPOLYLINE
  5
13EB
330
1556
100
AcDbEntity
  8
B-XX-IE-TERREINAFSCHEIDING_KUNSTMATIG_HEKWERK-G
100
AcDbPolyline
 90
        2
 70
   128
 43
0.0
 10
209144.635
 20
437969.691
 10
209145.6
 20
437971.882
  0
LWPOLYLINE
  5
13EC
330
1556
100
AcDbEntity
  8
B-XX-IE-TERREINAFSCHEIDING_KUNSTMATIG_HEKWERK-G
100
AcDbPolyline
 90
        5
 70
   128
 43
0.0
 10
209154.919
 20
437993.048
 10
209155.192
 20
437993.668
 10
209166.074
 20
438011.978
 10
209167.822
 20
438013.946
 10
209168.054
 20
438014.339
  0
LWPOLYLINE
  5
13ED
330
1556
100
AcDbEntity
  8
B-XX-IE-TERREINAFSCHEIDING_KUNSTMATIG_HEKWERK-G
100
AcDbPolyline
 90
        2
 70
   128
 43
0.0
 10
209235.116
 20
437813.99
 10
209223.722
 20
437816.684
  0
LWPOLYLINE
  5
13EE
330
1556
100
AcDbEntity
  8
B-XX-IE-TERREINAFSCHEIDING_KUNSTMATIG_HEKWERK-G
100
AcDbPolyline
 90
        2
 70
   128
 43
0.0
 10
209145.6
 20
437971.882
 10
209147.034
 20
437975.141
  0
LWPOLYLINE
  5
13EF
330
1556
100
AcDbEntity
  8
B-XX-IE-TERREINAFSCHEIDING_KUNSTMATIG_HEKWERK-G
100
AcDbPolyline
 90
        2
 70
   128
 43
0.0
 10
209365.025
 20
437749.833
 10
209372.089
 20
437764.09
  0
LWPOLYLINE
  5
13F0
330
1556
100
AcDbEntity
  8
B-XX-OG-WATER-GV
100
AcDbPolyline
 90
        2
 70
   128
 43
0.0
 10
209676.861
 20
437875.47
 42
1.021209
 10
209676.232
 20
437874.888
  0
LWPOLYLINE
  5
13F2
330
1556
100
AcDbEntity
  8
B-XX-OG-WATER_GREPPEL-GV
100
AcDbPolyline
 90
        2
 70
   128
 43
0.0
 10
209465.242
 20
438015.625
 10
209465.326
 20
438015.908
  0
LWPOLYLINE
  5
13F3
330
1556
100
AcDbEntity
  8
B-XX-OG-WATER_GREPPEL-GV
100
AcDbPolyline
 90
        2
 70
   128
 43
0.0
 10
209465.326
 20
438015.908
 42
0.551643
 10
209464.159
 20
438016.914
  0
LWPOLYLINE
  5
13F5
330
1556
100
AcDbEntity
  8
B-XX-OG-WATER_GREPPEL-GV
100
AcDbPolyline
 90
        2
 70
   128
 43
0.0
 10
209464.159
 20
438016.914
 42
0.180259
 10
209463.654
 20
438016.527
  0
LWPOLYLINE
  5
13F7
330
1556
100
AcDbEntity
  8
B-XX-OG-WATER_GREPPEL-GV
100
AcDbPolyline
 90
        9
 70
   128
 43
0.0
 10
209463.654
 20
438016.527
 10
209462.928
 20
438014.459
 10
209462.216
 20
438012.851
 10
209458.11
 20
438000.0
 10
209452.979
 20
437983.942
 10
209450.245
 20
437975.387
 10
209447.491
 20
437966.265
 10
209432.99
 20
437915.559
 10
209413.49
 20
437847.645
  0
LWPOLYLINE
  5
13F8
330
1556
100
AcDbEntity
  8
B-XX-OG-WATER_GREPPEL-GV
100
AcDbPolyline
 90
        2
 70
   128
 43
0.0
 10
209413.49
 20
437847.645
 42
1.071143
 10
209415.819
 20
437846.372
  0
LWPOLYLINE
  5
13FA
330
1556
100
AcDbEntity
  8
B-XX-OG-WATER_GREPPEL-GV
100
AcDbPolyline
 90
       11
 70
   128
 43
0.0
 10
209415.819
 20
437846.372
 10
209426.789
 20
437886.702
 10
209433.747
 20
437910.558
 10
209437.837
 20
437924.581
 10
209443.589
 20
437944.305
 10
209452.608
 20
437974.685
 10
209452.631
 20
437974.678
 10
209452.737
 20
437974.965
 10
209460.454
 20
438000.0
 10
209464.412
 20
438012.84
 10
209465.242
 20
438015.625
  0
LWPOLYLINE
  5
13FB
330
1556
100
AcDbEntity
  8
B-XX-OG-WATER_GREPPEL-GV
100
AcDbPolyline
 90
        2
 70
   128
 43
0.0
 10
209323.14
 20
437680.83
 42
0.575997
 10
209321.165
 20
437682.18
  0
LWPOLYLINE
  5
13FD
330
1556
100
AcDbEntity
  8
B-XX-OG-WATER_GREPPEL-GV
100
AcDbPolyline
 90
       15
 70
   128
 43
0.0
 10
209396.608
 20
437848.632
 10
209396.788
 20
437848.134
 10
209397.079
 20
437847.984
 10
209397.408
 20
437847.853
 10
209397.93
 20
437847.705
 10
209398.413
 20
437847.557
 10
209398.916
 20
437847.39
 10
209399.185
 20
437847.394
 10
209399.318
 20
437847.569
 10
209399.541
 20
437848.246
 10
209399.742
 20
437849.057
 10
209400.322
 20
437851.972
 10
209411.429
 20
437890.63
 10
209413.505
 20
437898.629
 10
209416.084
 20
437908.055
  0
LWPOLYLINE
  5
13FE
330
1556
100
AcDbEntity
  8
B-XX-OG-WATER_GREPPEL-GV
100
AcDbPolyline
 90
        2
 70
   128
 43
0.0
 10
209416.084
 20
437908.055
 42
0.872116
 10
209413.029
 20
437908.947
  0
LWPOLYLINE
  5
1400
330
1556
100
AcDbEntity
  8
B-XX-OG-WATER_GREPPEL-GV
100
AcDbPolyline
 90
        6
 70
   128
 43
0.0
 10
209413.029
 20
437908.947
 10
209406.801
 20
437884.821
 10
209403.776
 20
437873.106
 10
209398.016
 20
437853.022
 10
209396.68
 20
437849.096
 10
209396.608
 20
437848.632
  0
LWPOLYLINE
  5
1401
330
1556
100
AcDbEntity
  8
B-XX-OG-WATER_GREPPEL-GV
100
AcDbPolyline
 90
       18
 70
   129
 43
0.0
 10
209146.439
 20
437960.71
 10
209143.658
 20
437961.606
 10
209134.348
 20
437931.765
 10
209129.104
 20
437915.329
 10
209125.99
 20
437907.278
 10
209124.1
 20
437902.901
 10
209123.465
 20
437901.256
 10
209123.319
 20
437900.638
 10
209123.496
 20
437900.39
 10
209123.962
 20
437900.03
 10
209124.753
 20
437899.944
 10
209125.441
 20
437900.395
 10
209129.284
 20
437908.744
 10
209129.755
 20
437909.886
 10
209131.975
 20
437915.268
 10
209133.945
 20
437920.955
 10
209136.521
 20
437928.923
 10
209146.439
 20
437960.71
  0
LWPOLYLINE
  5
1402
330
1556
100
AcDbEntity
  8
B-XX-OG-WATER_GREPPEL-GV
100
AcDbPolyline
 90
        2
 70
   128
 43
0.0
 10
209551.613
 20
437960.288
 42
0.884989
 10
209550.135
 20
437957.836
  0
LWPOLYLINE
  5
1404
330
1556
100
AcDbEntity
  8
B-XX-OG-WATER_GREPPEL-GV
100
AcDbPolyline
 90
       18
 70
   128
 43
0.0
 10
209550.135
 20
437957.836
 10
209561.089
 20
437950.879
 10
209567.535
 20
437946.765
 10
209589.685
 20
437932.09
 10
209621.983
 20
437910.17
 10
209658.502
 20
437885.42
 10
209666.447
 20
437880.37
 10
209669.484
 20
437879.023
 10
209670.442
 20
437879.81
 10
209670.484
 20
437880.901
 10
209661.081
 20
437887.785
 10
209621.209
 20
437914.025
 10
209583.45
 20
437939.551
 10
209582.169
 20
437940.434
 10
209564.696
 20
437952.483
 10
209551.903
 20
437960.115
 10
209551.763
 20
437960.21
 10
209551.613
 20
437960.288
  0
LWPOLYLINE
  5
1405
330
1556
100
AcDbEntity
  8
B-XX-OG-WATER_GREPPEL-GV
100
AcDbPolyline
 90
        2
 70
   128
 43
0.0
 10
209423.603
 20
437933.501
 42
0.198593
 10
209423.39
 20
437934.752
  0
LWPOLYLINE
  5
1407
330
1556
100
AcDbEntity
  8
B-XX-OG-WATER_GREPPEL-GV
100
AcDbPolyline
 90
        2
 70
   128
 43
0.0
 10
209423.39
 20
437934.752
 42
0.609776
 10
209420.45
 20
437934.501
  0
LWPOLYLINE
  5
1409
330
1556
100
AcDbEntity
  8
B-XX-OG-WATER_GREPPEL-GV
100
AcDbPolyline
 90
        4
 70
   128
 43
0.0
 10
209420.45
 20
437934.501
 10
209418.064
 20
437926.571
 10
209417.838
 20
437925.818
 10
209415.713
 20
437918.755
  0
LWPOLYLINE
  5
140A
330
1556
100
AcDbEntity
  8
B-XX-OG-WATER_GREPPEL-GV
100
AcDbPolyline
 90
        2
 70
   128
 43
0.0
 10
209415.713
 20
437918.755
 42
0.771059
 10
209418.669
 20
437917.502
  0
LWPOLYLINE
  5
140C
330
1556
100
AcDbEntity
  8
B-XX-OG-WATER_GREPPEL-GV
100
AcDbPolyline
 90
        2
 70
   128
 43
0.0
 10
209418.669
 20
437917.502
 42
0.077939
 10
209418.914
 20
437917.946
  0
LWPOLYLINE
  5
140E
330
1556
100
AcDbEntity
  8
B-XX-OG-WATER_GREPPEL-GV
100
AcDbPolyline
 90
        4
 70
   128
 43
0.0
 10
209418.914
 20
437917.946
 10
209421.038
 20
437924.991
 10
209421.265
 20
437925.744
 10
209423.603
 20
437933.501
  0
LWPOLYLINE
  5
140F
330
1556
100
AcDbEntity
  8
B-XX-VH-VERHARDING_OPEN-GV
100
AcDbPolyline
 90
        9
 70
   129
 43
0.0
 10
209423.547
 20
437935.329
 10
209425.472
 20
437934.661
 10
209426.418
 20
437934.333
 10
209427.897
 20
437939.448
 10
209426.964
 20
437939.823
 10
209422.951
 20
437941.439
 10
209422.493
 20
437940.361
 10
209421.024
 20
437936.204
 10
209423.547
 20
437935.329
  0
LWPOLYLINE
  5
1410
330
1556
100
AcDbEntity
  8
B-XX-VH-VERHARDING_OPEN-GV
100
AcDbPolyline
 90
       12
 70
   129
 43
0.0
 10
209394.749
 20
437825.469
 10
209394.436
 20
437825.302
 10
209393.899
 20
437825.141
 10
209393.609
 20
437825.144
 10
209393.109
 20
437825.15
 10
209391.85
 20
437825.732
 10
209390.142
 20
437826.426
 10
209389.203
 20
437823.338
 10
209391.952
 20
437819.586
 10
209392.674
 20
437818.6
 10
209392.694
 20
437818.573
 10
209394.749
 20
437825.469
  0
LWPOLYLINE
  5
1411
330
1556
100
AcDbEntity
  8
B-XX-VH-VERHARDING_OPEN-GV
100
AcDbPolyline
 90
        5
 70
   129
 43
0.0
 10
209298.197
 20
437799.074
 10
209298.478
 20
437800.078
 10
209289.732
 20
437802.155
 10
209289.376
 20
437801.16
 10
209298.197
 20
437799.074
  0
LWPOLYLINE
  5
1412
330
1556
100
AcDbEntity
  8
B-XX-OG-WEG-GV
100
AcDbPolyline
 90
       42
 70
   129
 43
0.0
 10
209421.09
 20
437915.584
 10
209418.714
 20
437907.199
 10
209414.285
 20
437891.571
 10
209404.683
 20
437858.807
 10
209398.75
 20
437838.899
 10
209398.322
 20
437837.461
 10
209394.749
 20
437825.469
 10
209392.694
 20
437818.573
 10
209392.672
 20
437818.501
 10
209387.161
 20
437800.291
 10
209386.104
 20
437796.945
 10
209382.962
 20
437787.634
 10
209381.925
 20
437783.889
 10
209380.417
 20
437779.231
 10
209377.224
 20
437770.527
 10
209374.924
 20
437764.256
 10
209373.409
 20
437761.1
 10
209376.621
 20
437759.502
 10
209378.004
 20
437762.778
 10
209382.457
 20
437773.325
 10
209392.396
 20
437803.802
 10
209395.384
 20
437813.492
 10
209404.867
 20
437844.249
 10
209404.982
 20
437844.658
 10
209418.324
 20
437892.104
 10
209437.198
 20
437959.343
 10
209444.4
 20
437983.783
 10
209451.457
 20
438007.728
 10
209452.463
 20
438010.061
 10
209449.145
 20
438011.492
 10
209446.965
 20
438005.052
 10
209441.885
 20
437987.828
 10
209441.043
 20
437984.915
 10
209440.051
 20
437981.485
 10
209439.233
 20
437978.656
 10
209430.767
 20
437949.374
 10
209429.886
 20
437946.328
 10
209429.144
 20
437943.761
 10
209427.897
 20
437939.448
 10
209426.418
 20
437934.333
 10
209425.7
 20
437931.851
 10
209421.09
 20
437915.584
  0
LWPOLYLINE
  5
1413
330
1556
100
AcDbEntity
  8
B-XX-VH-VERHARDING_GESLOTEN-GV
100
AcDbPolyline
 90
       17
 70
   129
 43
0.0
 10
209679.93
 20
437878.273
 10
209671.103
 20
437883.834
 10
209671.76
 20
437882.989
 10
209672.006
 20
437882.001
 10
209672.053
 20
437881.261
 10
209672.012
 20
437879.996
 10
209671.9
 20
437879.024
 10
209671.835
 20
437878.464
 10
209670.947
 20
437876.892
 10
209670.684
 20
437876.283
 10
209673.478
 20
437874.428
 10
209674.71
 20
437876.45
 10
209675.984
 20
437877.623
 10
209677.309
 20
437878.237
 10
209677.604
 20
437878.31
 10
209678.641
 20
437878.568
 10
209679.93
 20
437878.273
  0
LWPOLYLINE
  5
1414
330
1556
100
AcDbEntity
  8
B-XX-VH-VERHARDING_OPEN-GV
100
AcDbPolyline
 90
        8
 70
   129
 43
0.0
 10
209518.031
 20
437983.443
 10
209519.196
 20
437984.37
 10
209520.018
 20
437985.025
 10
209512.391
 20
437990.092
 10
209512.175
 20
437989.035
 10
209511.827
 20
437987.337
 10
209517.909
 20
437983.52
 10
209518.031
 20
437983.443
  0
LWPOLYLINE
  5
1415
330
1556
100
AcDbEntity
  8
B-XX-VH-VERHARDING_OPEN-GV
100
AcDbPolyline
 90
        5
 70
   129
 43
0.0
 10
209397.472
 20
437837.715
 10
209398.322
 20
437837.461
 10
209398.75
 20
437838.899
 10
209397.931
 20
437839.143
 10
209397.472
 20
437837.715
  0
LWPOLYLINE
  5
1416
330
1556
100
AcDbEntity
  8
B-XX-VH-VERHARDING_OPEN-GV
100
AcDbPolyline
 90
        7
 70
   129
 43
0.0
 10
209439.233
 20
437978.656
 10
209440.051
 20
437981.485
 10
209439.114
 20
437981.844
 10
209436.62
 20
437982.799
 10
209435.694
 20
437979.918
 10
209437.755
 20
437979.183
 10
209439.233
 20
437978.656
  0
LWPOLYLINE
  5
1417
330
1556
100
AcDbEntity
  8
B-XX-VH-VERHARDING_GESLOTEN-GV
100
AcDbPolyline
 90
        6
 70
   129
 43
0.0
 10
209368.703
 20
437751.295
 10
209372.036
 20
437749.621
 10
209374.471
 20
437754.409
 10
209376.621
 20
437759.502
 10
209373.409
 20
437761.1
 10
209368.703
 20
437751.295
  0
LWPOLYLINE
  5
1418
330
1556
100
AcDbEntity
  8
B-XX-VH-VERHARDING_OPEN-GV
100
AcDbPolyline
 90
        8
 70
   129
 43
0.0
 10
209153.821
 20
437992.171
 10
209154.415
 20
437991.904
 10
209154.919
 20
437993.048
 10
209154.432
 20
437993.267
 10
209153.517
 20
437993.679
 10
209152.978
 20
437992.722
 10
209152.909
 20
437992.581
 10
209153.821
 20
437992.171
  0
LWPOLYLINE
  5
1419
330
1556
100
AcDbEntity
  8
B-XX-VH-VERHARDING_OPEN-GV
100
AcDbPolyline
 90
       12
 70
   129
 43
0.0
 10
209382.962
 20
437787.634
 10
209379.833
 20
437785.074
 10
209378.17
 20
437784.959
 10
209376.873
 20
437785.487
 10
209376.393
 20
437782.301
 10
209377.859
 20
437781.164
 10
209378.866
 20
437780.384
 10
209379.058
 20
437780.235
 10
209379.569
 20
437779.858
 10
209380.417
 20
437779.231
 10
209381.925
 20
437783.889
 10
209382.962
 20
437787.634
  0
LWPOLYLINE
  5
141A
330
1556
100
AcDbEntity
  8
B-XX-VH-VERHARDING_OPEN-GV
100
AcDbPolyline
 90
       56
 70
   129
 43
0.0
 10
209298.478
 20
437800.078
 10
209305.17
 20
437822.31
 10
209306.193
 20
437823.652
 10
209306.992
 20
437824.432
 10
209307.47
 20
437824.746
 10
209308.793
 20
437825.186
 10
209309.831
 20
437825.315
 10
209311.585
 20
437825.26
 10
209313.478
 20
437824.783
 10
209316.128
 20
437823.854
 10
209317.504
 20
437823.178
 10
209379.407
 20
437795.281
 10
209380.652
 20
437794.314
 10
209381.961
 20
437792.828
 10
209382.675
 20
437791.181
 10
209383.014
 20
437789.05
 10
209382.962
 20
437787.634
 10
209386.104
 20
437796.945
 10
209387.161
 20
437800.291
 10
209386.267
 20
437799.546
 10
209385.803
 20
437799.256
 10
209385.292
 20
437798.937
 10
209384.277
 20
437798.5
 10
209383.01
 20
437798.195
 10
209381.836
 20
437798.181
 10
209381.176
 20
437798.261
 10
209380.119
 20
437798.39
 10
209377.796
 20
437799.343
 10
209308.426
 20
437829.843
 10
209307.777
 20
437830.018
 10
209305.837
 20
437830.542
 10
209303.404
 20
437831.012
 10
209302.338
 20
437826.973
 10
209303.382
 20
437826.698
 10
209299.402
 20
437813.08
 10
209298.637
 20
437810.46
 10
209298.102
 20
437808.547
 10
209297.596
 20
437807.443
 10
209296.932
 20
437806.645
 10
209296.246
 20
437806.097
 10
209295.443
 20
437805.644
 10
209294.79
 20
437805.482
 10
209293.5
 20
437805.465
 10
209291.9
 20
437805.58
 10
209290.871
 20
437805.733
 10
209289.874
 20
437805.882
 10
209224.503
 20
437820.081
 10
209223.553
 20
437820.238
 10
209220.488
 20
437820.743
 10
209219.724
 20
437817.629
 10
209223.722
 20
437816.684
 10
209224.597
 20
437817.174
 10
209225.811
 20
437817.151
 10
209227.547
 20
437816.922
 10
209289.732
 20
437802.155
 10
209298.478
 20
437800.078
  0
LWPOLYLINE
  5
141B
330
1556
100
AcDbEntity
  8
B-XX-VH-VERHARDING_OPEN-GV
100
AcDbPolyline
 90
       12
 70
   129
 43
0.0
 10
209364.504
 20
437748.637
 10
209362.843
 20
437744.825
 10
209363.452
 20
437743.682
 10
209363.475
 20
437743.639
 10
209363.892
 20
437742.605
 10
209363.854
 20
437742.36
 10
209367.605
 20
437749.007
 10
209366.9
 20
437748.478
 10
209366.146
 20
437748.457
 10
209365.648
 20
437748.443
 10
209364.548
 20
437748.622
 10
209364.504
 20
437748.637
  0
LWPOLYLINE
  5
141C
330
1556
100
AcDbEntity
  8
B-XX-VH-VERHARDING_OPEN-GV
100
AcDbPolyline
 90
        9
 70
   129
 43
0.0
 10
209335.498
 20
437697.405
 10
209334.113
 20
437697.029
 10
209333.868
 20
437697.089
 10
209328.874
 20
437690.728
 10
209329.703
 20
437689.386
 10
209330.017
 20
437688.793
 10
209330.555
 20
437687.777
 10
209336.931
 20
437697.793
 10
209335.498
 20
437697.405
  0
LWPOLYLINE
  5
141D
330
1556
100
AcDbEntity
  8
B-XX-VH-VERHARDING_OPEN-GV
100
AcDbPolyline
 90
       10
 70
   129
 43
0.0
 10
209374.02
 20
437770.369
 10
209372.726
 20
437767.618
 10
209374.242
 20
437765.3
 10
209374.924
 20
437764.256
 10
209377.224
 20
437770.527
 10
209376.445
 20
437770.515
 10
209376.148
 20
437770.498
 10
209374.967
 20
437770.43
 10
209374.29
 20
437770.391
 10
209374.02
 20
437770.369
  0
LWPOLYLINE
  5
141E
330
1556
100
AcDbEntity
  8
B-XX-VH-ONVERHARD-GV
100
AcDbPolyline
 90
        2
 70
   128
 43
0.0
 10
209336.945
 20
437671.798
 10
209335.451
 20
437674.526
  0
LWPOLYLINE
  5
141F
330
1556
100
AcDbEntity
  8
B-XX-VH-ONVERHARD-GV
100
AcDbPolyline
 90
        2
 70
   128
 43
0.0
 10
209335.451
 20
437674.526
 42
-0.063839
 10
209333.517
 20
437679.673
  0
LWPOLYLINE
  5
1421
330
1556
100
AcDbEntity
  8
B-XX-VH-VERHARDING_OPEN-GV
100
AcDbPolyline
 90
        8
 70
   129
 43
0.0
 10
209423.821
 20
437944.739
 10
209422.951
 20
437941.439
 10
209426.964
 20
437939.823
 10
209427.897
 20
437939.448
 10
209429.144
 20
437943.761
 10
209429.886
 20
437946.328
 10
209428.76
 20
437946.033
 10
209423.821
 20
437944.739
  0
LWPOLYLINE
  5
1422
330
1556
100
AcDbEntity
  8
B-XX-VH-VERHARDING_OPEN-GV
100
AcDbPolyline
 90
        8
 70
   128
 43
0.0
 10
209418.714
 20
437907.199
 10
209421.09
 20
437915.584
 10
209419.975
 20
437915.315
 10
209417.937
 20
437914.825
 10
209417.705
 20
437914.769
 10
209414.946
 20
437915.952
 10
209413.703
 20
437911.408
 10
209415.443
 20
437910.75
  0
LWPOLYLINE
  5
1423
330
1556
100
AcDbEntity
  8
B-XX-VH-VERHARDING_OPEN-GV
100
AcDbPolyline
 90
        2
 70
   128
 43
0.0
 10
209415.443
 20
437910.75
 42
-0.05501
 10
209416.627
 20
437910.039
  0
LWPOLYLINE
  5
1425
330
1556
100
AcDbEntity
  8
B-XX-VH-VERHARDING_OPEN-GV
100
AcDbPolyline
 90
        2
 70
   128
 43
0.0
 10
209416.627
 20
437910.039
 42
-0.083547
 10
209418.049
 20
437908.519
  0
LWPOLYLINE
  5
1427
330
1556
100
AcDbEntity
  8
B-XX-VH-VERHARDING_OPEN-GV
100
AcDbPolyline
 90
        2
 70
   128
 43
0.0
 10
209418.049
 20
437908.519
 42
-0.058701
 10
209418.714
 20
437907.199
  0
LWPOLYLINE
  5
1429
330
1556
100
AcDbEntity
  8
B-XX-VH-VERHARDING_OPEN-GV
100
AcDbPolyline
 90
        8
 70
   129
 43
0.0
 10
209355.43
 20
437729.697
 10
209355.196
 20
437729.611
 10
209354.594
 20
437729.506
 10
209351.656
 20
437724.345
 10
209351.836
 20
437723.845
 10
209352.27
 20
437722.64
 10
209356.944
 20
437730.252
 10
209355.43
 20
437729.697
  0
LWPOLYLINE
  5
142A
330
1556
100
AcDbEntity
  8
B-XX-VH-ONVERHARD-GV
100
AcDbPolyline
 90
        5
 70
   128
 43
0.0
 10
209325.407
 20
437670.541
 10
209327.182
 20
437670.923
 10
209327.893
 20
437671.009
 10
209328.913
 20
437671.099
 10
209333.517
 20
437679.673
  0
LWPOLYLINE
  5
142B
330
1556
100
AcDbEntity
  8
B-XX-VH-ONVERHARD-GV
100
AcDbPolyline
 90
        2
 70
   128
 43
0.0
 10
209333.517
 20
437679.673
 42
-0.016394
 10
209333.237
 20
437681.057
  0
LWPOLYLINE
  5
142D
330
1556
100
AcDbEntity
  8
B-XX-VH-ONVERHARD-GV
100
AcDbPolyline
 90
        7
 70
   128
 43
0.0
 10
209333.237
 20
437681.057
 10
209333.054
 20
437682.693
 10
209332.876
 20
437684.287
 10
209330.144
 20
437679.946
 10
209323.867
 20
437669.972
 10
209324.8
 20
437670.411
 10
209325.407
 20
437670.541
  0
LWPOLYLINE
  5
142E
330
1556
100
AcDbEntity
  8
B-XX-VH-VERHARDING_GESLOTEN-GV
100
AcDbPolyline
 90
       19
 70
   129
 43
0.0
 10
209602.502
 20
437730.291
 10
209600.608
 20
437726.415
 10
209596.628
 20
437718.817
 10
209600.164
 20
437717.147
 10
209604.591
 20
437727.429
 10
209610.817
 20
437741.887
 10
209624.183
 20
437769.19
 10
209635.8
 20
437793.76
 10
209657.421
 20
437840.246
 10
209666.11
 20
437859.678
 10
209671.652
 20
437871.432
 10
209673.478
 20
437874.428
 10
209670.684
 20
437876.283
 10
209660.93
 20
437853.716
 10
209648.332
 20
437826.618
 10
209634.825
 20
437797.044
 10
209621.925
 20
437770.568
 10
209609.111
 20
437743.82
 10
209602.502
 20
437730.291
  0
LWPOLYLINE
  5
142F
330
1556
100
AcDbEntity
  8
B-XX-GR-HOUTWAL-GV
100
AcDbPolyline
 90
        6
 70
   129
 43
0.0
 10
209213.907
 20
437882.583
 10
209219.949
 20
437902.189
 10
209217.937
 20
437903.054
 10
209207.85
 20
437868.509
 10
209209.688
 20
437867.857
 10
209213.907
 20
437882.583
  0
LWPOLYLINE
  5
1430
330
1556
100
AcDbEntity
  8
B-XX-OG-TERREIN_CULTUURSCHEIDING-GV
100
AcDbPolyline
 90
        6
 70
   129
 43
0.0
 10
209436.713
 20
437983.087
 10
209436.62
 20
437982.799
 10
209439.114
 20
437981.844
 10
209440.094
 20
437985.234
 10
209437.671
 20
437986.052
 10
209436.713
 20
437983.087
  0
LWPOLYLINE
  5
1431
330
1556
100
AcDbEntity
  8
B-XX-OG-TERREIN_CULTUURSCHEIDING-GV
100
AcDbPolyline
 90
       13
 70
   129
 43
0.0
 10
209385.803
 20
437799.256
 10
209386.204
 20
437800.581
 10
209391.714
 20
437818.789
 10
209391.952
 20
437819.586
 10
209389.203
 20
437823.338
 10
209387.978
 20
437819.31
 10
209381.325
 20
437798.788
 10
209381.176
 20
437798.261
 10
209381.836
 20
437798.181
 10
209383.01
 20
437798.195
 10
209384.277
 20
437798.5
 10
209385.292
 20
437798.937
 10
209385.803
 20
437799.256
  0
LWPOLYLINE
  5
1432
330
1556
100
AcDbEntity
  8
B-XX-OG-TERREIN_CULTUURSCHEIDING-GV
100
AcDbPolyline
 90
        8
 70
   129
 43
0.0
 10
209557.768
 20
437968.673
 10
209556.933
 20
437969.228
 10
209555.831
 20
437967.298
 10
209558.505
 20
437965.514
 10
209677.145
 20
437886.353
 10
209677.883
 20
437887.465
 10
209677.546
 20
437888.939
 10
209557.768
 20
437968.673
  0
LWPOLYLINE
  5
1433
330
1556
100
AcDbEntity
  8
B-XX-OG-TERREIN_CULTUURSCHEIDING-GV
100
AcDbPolyline
 90
       15
 70
   128
 43
0.0
 10
209399.185
 20
437847.394
 10
209398.916
 20
437847.39
 10
209398.413
 20
437847.557
 10
209397.93
 20
437847.705
 10
209397.408
 20
437847.853
 10
209397.079
 20
437847.984
 10
209396.788
 20
437848.134
 10
209396.608
 20
437848.632
 10
209396.228
 20
437847.465
 10
209398.723
 20
437846.433
 10
209398.832
 20
437846.388
 10
209399.821
 20
437845.991
 10
209403.724
 20
437859.09
 10
209413.324
 20
437891.848
 10
209418.049
 20
437908.519
  0
LWPOLYLINE
  5
1434
330
1556
100
AcDbEntity
  8
B-XX-OG-TERREIN_CULTUURSCHEIDING-GV
100
AcDbPolyline
 90
        2
 70
   128
 43
0.0
 10
209418.049
 20
437908.519
 42
0.083547
 10
209416.627
 20
437910.039
  0
LWPOLYLINE
  5
1436
330
1556
100
AcDbEntity
  8
B-XX-OG-TERREIN_CULTUURSCHEIDING-GV
100
AcDbPolyline
 90
        2
 70
   128
 43
0.0
 10
209416.627
 20
437910.039
 42
0.05501
 10
209415.443
 20
437910.75
  0
LWPOLYLINE
  5
1438
330
1556
100
AcDbEntity
  8
B-XX-OG-TERREIN_CULTUURSCHEIDING-GV
100
AcDbPolyline
 90
        3
 70
   128
 43
0.0
 10
209415.443
 20
437910.75
 10
209413.703
 20
437911.408
 10
209413.029
 20
437908.947
  0
LWPOLYLINE
  5
1439
330
1556
100
AcDbEntity
  8
B-XX-OG-TERREIN_CULTUURSCHEIDING-GV
100
AcDbPolyline
 90
        2
 70
   128
 43
0.0
 10
209413.029
 20
437908.947
 42
-0.872116
 10
209416.084
 20
437908.055
  0
LWPOLYLINE
  5
143B
330
1556
100
AcDbEntity
  8
B-XX-OG-TERREIN_CULTUURSCHEIDING-GV
100
AcDbPolyline
 90
        8
 70
   128
 43
0.0
 10
209416.084
 20
437908.055
 10
209413.505
 20
437898.629
 10
209411.429
 20
437890.63
 10
209400.322
 20
437851.972
 10
209399.742
 20
437849.057
 10
209399.541
 20
437848.246
 10
209399.318
 20
437847.569
 10
209399.185
 20
437847.394
  0
LWPOLYLINE
  5
143C
330
1556
100
AcDbEntity
  8
B-XX-GR-HOUTWAL-GV
100
AcDbPolyline
 90
       15
 70
   128
 43
0.0
 10
209445.481
 20
437976.836
 10
209440.081
 20
437958.514
 10
209421.212
 20
437891.293
 10
209407.87
 20
437843.846
 10
209407.745
 20
437843.401
 10
209398.251
 20
437812.608
 10
209395.256
 20
437802.895
 10
209385.27
 20
437772.275
 10
209377.193
 20
437753.144
 10
209369.302
 20
437737.633
 10
209361.128
 20
437723.785
 10
209350.234
 20
437706.241
 10
209336.949
 20
437685.128
 10
209335.695
 20
437683.135
 10
209333.517
 20
437679.673
  0
LWPOLYLINE
  5
143D
330
1556
100
AcDbEntity
  8
B-XX-GR-HOUTWAL-GV
100
AcDbPolyline
 90
        2
 70
   128
 43
0.0
 10
209333.517
 20
437679.673
 42
0.063839
 10
209335.451
 20
437674.526
  0
LWPOLYLINE
  5
143F
330
1556
100
AcDbEntity
  8
B-XX-GR-HOUTWAL-GV
100
AcDbPolyline
 90
        2
 70
   128
 43
0.0
 10
209415.819
 20
437846.372
 42
-1.071143
 10
209413.49
 20
437847.645
  0
LWPOLYLINE
  5
1441
330
1556
100
AcDbEntity
  8
B-XX-GR-HOUTWAL-GV
100
AcDbPolyline
 90
       19
 70
   128
 43
0.0
 10
209413.49
 20
437847.645
 10
209432.99
 20
437915.559
 10
209447.491
 20
437966.265
 10
209450.245
 20
437975.387
 10
209452.979
 20
437983.942
 10
209449.372
 20
437985.312
 10
209450.398
 20
437988.937
 10
209454.149
 20
438000.0
 10
209456.563
 20
438007.118
 10
209456.765
 20
438007.891
 10
209456.504
 20
438008.774
 10
209455.901
 20
438009.228
 10
209455.42
 20
438009.203
 10
209454.831
 20
438008.599
 10
209454.089
 20
438006.317
 10
209452.584
 20
438001.984
 10
209451.982
 20
438000.0
 10
209446.81
 20
437982.97
 10
209445.481
 20
437976.836
  0
LWPOLYLINE
  5
1442
330
1556
100
AcDbEntity
  8
B-XX-OG-TERREIN_CULTUURSCHEIDING-GV
100
AcDbPolyline
 90
       12
 70
   129
 43
0.0
 10
209363.854
 20
437742.36
 10
209363.892
 20
437742.605
 10
209363.475
 20
437743.639
 10
209363.452
 20
437743.682
 10
209362.843
 20
437744.825
 10
209361.192
 20
437741.035
 10
209354.594
 20
437729.506
 10
209355.196
 20
437729.611
 10
209355.43
 20
437729.697
 10
209356.944
 20
437730.252
 10
209357.884
 20
437731.783
 10
209363.854
 20
437742.36
  0
LWPOLYLINE
  5
1443
330
1556
100
AcDbEntity
  8
B-XX-OG-TERREIN_CULTUURSCHEIDING-GV
100
AcDbPolyline
 90
        2
 70
   128
 43
0.0
 10
209463.654
 20
438016.527
 42
-0.180259
 10
209464.159
 20
438016.914
  0
LWPOLYLINE
  5
1445
330
1556
100
AcDbEntity
  8
B-XX-OG-TERREIN_CULTUURSCHEIDING-GV
100
AcDbPolyline
 90
        2
 70
   128
 43
0.0
 10
209464.159
 20
438016.914
 42
-0.551643
 10
209465.326
 20
438015.908
  0
LWPOLYLINE
  5
1447
330
1556
100
AcDbEntity
  8
B-XX-OG-TERREIN_CULTUURSCHEIDING-GV
100
AcDbPolyline
 90
       16
 70
   129
 43
0.0
 10
209209.688
 20
437867.857
 10
209209.592
 20
437867.521
 10
209205.716
 20
437844.748
 10
209222.798
 20
437839.164
 10
209224.414
 20
437838.75
 10
209241.942
 20
437834.265
 10
209245.86
 20
437851.931
 10
209261.894
 20
437848.208
 10
209268.712
 20
437846.665
 10
209269.584
 20
437851.209
 10
209280.772
 20
437848.618
 10
209287.803
 20
437872.358
 10
209247.109
 20
437890.511
 10
209219.949
 20
437902.189
 10
209213.907
 20
437882.583
 10
209209.688
 20
437867.857
  0
LWPOLYLINE
  5
1448
330
1556
100
AcDbEntity
  8
B-XX-OG-TERREIN_CULTUURSCHEIDING-GV
100
AcDbPolyline
 90
       21
 70
   129
 43
0.0
 10
209520.018
 20
437985.025
 10
209519.196
 20
437984.37
 10
209524.039
 20
437981.153
 10
209541.464
 20
437969.591
 10
209557.22
 20
437959.136
 10
209582.984
 20
437941.621
 10
209608.722
 20
437924.276
 10
209639.025
 20
437904.22
 10
209662.051
 20
437888.661
 10
209670.413
 20
437883.092
 10
209672.006
 20
437882.001
 10
209671.76
 20
437882.989
 10
209671.103
 20
437883.834
 10
209662.608
 20
437889.492
 10
209639.581
 20
437905.051
 10
209609.277
 20
437925.108
 10
209583.544
 20
437942.449
 10
209557.777
 20
437959.966
 10
209524.592
 20
437981.986
 10
209520.66
 20
437984.598
 10
209520.018
 20
437985.025
  0
LWPOLYLINE
  5
1449
330
1556
100
AcDbEntity
  8
B-XX-OG-TERREIN_CULTUURSCHEIDING-GV
100
AcDbPolyline
 90
        5
 70
   129
 43
0.0
 10
209440.094
 20
437985.234
 10
209439.114
 20
437981.844
 10
209440.051
 20
437981.485
 10
209441.043
 20
437984.915
 10
209440.094
 20
437985.234
  0
LWPOLYLINE
  5
144A
330
1556
100
AcDbEntity
  8
B-XX-OG-TERREIN_CULTUURSCHEIDING-GV
100
AcDbPolyline
 90
        5
 70
   128
 43
0.0
 10
209397.931
 20
437839.143
 10
209398.75
 20
437838.899
 10
209404.683
 20
437858.807
 10
209414.285
 20
437891.571
 10
209418.714
 20
437907.199
  0
LWPOLYLINE
  5
144B
330
1556
100
AcDbEntity
  8
B-XX-OG-TERREIN_CULTUURSCHEIDING-GV
100
AcDbPolyline
 90
        2
 70
   128
 43
0.0
 10
209418.714
 20
437907.199
 42
0.058701
 10
209418.049
 20
437908.519
  0
LWPOLYLINE
  5
144D
330
1556
100
AcDbEntity
  8
B-XX-OG-TERREIN_CULTUURSCHEIDING-GV
100
AcDbPolyline
 90
        6
 70
   128
 43
0.0
 10
209418.049
 20
437908.519
 10
209413.324
 20
437891.848
 10
209403.724
 20
437859.09
 10
209399.821
 20
437845.991
 10
209400.098
 20
437845.879
 10
209397.931
 20
437839.143
  0
LWPOLYLINE
  5
144E
330
1556
100
AcDbEntity
  8
B-XX-OG-TERREIN_CULTUURSCHEIDING-GV
100
AcDbPolyline
 90
        7
 70
   129
 43
0.0
 10
209153.821
 20
437992.171
 10
209147.268
 20
437978.835
 10
209146.22
 20
437976.094
 10
209146.046
 20
437975.638
 10
209147.034
 20
437975.141
 10
209154.415
 20
437991.904
 10
209153.821
 20
437992.171
  0
LWPOLYLINE
  5
144F
330
1556
100
AcDbEntity
  8
B-XX-OG-TERREIN_CULTUURSCHEIDING-GV
100
AcDbPolyline
 90
        9
 70
   129
 43
0.0
 10
209511.827
 20
437987.337
 10
209512.175
 20
437989.035
 10
209503.401
 20
437994.864
 10
209496.834
 20
437999.163
 10
209495.947
 20
437997.542
 10
209500.187
 20
437994.726
 10
209501.954
 20
437993.535
 10
209509.368
 20
437988.881
 10
209511.827
 20
437987.337
  0
LWPOLYLINE
  5
1450
330
1556
100
AcDbEntity
  8
B-XX-OG-TERREIN_CULTUURSCHEIDING-GV
100
AcDbPolyline
 90
       35
 70
   129
 43
0.0
 10
209372.036
 20
437749.621
 10
209370.915
 20
437747.418
 10
209366.671
 20
437739.077
 10
209358.562
 20
437725.339
 10
209347.69
 20
437707.831
 10
209334.41
 20
437686.726
 10
209332.876
 20
437684.287
 10
209333.054
 20
437682.693
 10
209334.002
 20
437684.2
 10
209335.256
 20
437686.193
 10
209348.538
 20
437707.301
 10
209359.418
 20
437724.821
 10
209367.548
 20
437738.596
 10
209375.378
 20
437753.987
 10
209383.395
 20
437772.975
 10
209393.349
 20
437803.5
 10
209396.339
 20
437813.197
 10
209405.826
 20
437843.966
 10
209405.945
 20
437844.387
 10
209419.287
 20
437891.834
 10
209438.159
 20
437959.067
 10
209443.562
 20
437977.402
 10
209445.348
 20
437983.463
 10
209444.4
 20
437983.783
 10
209437.198
 20
437959.343
 10
209418.324
 20
437892.104
 10
209404.982
 20
437844.658
 10
209404.867
 20
437844.249
 10
209395.384
 20
437813.492
 10
209392.396
 20
437803.802
 10
209382.457
 20
437773.325
 10
209378.004
 20
437762.778
 10
209376.621
 20
437759.502
 10
209374.471
 20
437754.409
 10
209372.036
 20
437749.621
  0
LWPOLYLINE
  5
1451
330
1556
100
AcDbEntity
  8
B-XX-OG-TERREIN_CULTUURSCHEIDING-GV
100
AcDbPolyline
 90
       10
 70
   129
 43
0.0
 10
209165.139
 20
438014.169
 10
209163.471
 20
438011.362
 10
209153.517
 20
437993.679
 10
209154.432
 20
437993.267
 10
209157.946
 20
437999.509
 10
209164.337
 20
438010.861
 10
209166.052
 20
438013.747
 10
209166.508
 20
438014.515
 10
209165.424
 20
438014.264
 10
209165.139
 20
438014.169
  0
LWPOLYLINE
  5
1452
330
1556
100
AcDbEntity
  8
B-XX-OG-TERREIN_CULTUURSCHEIDING-GV
100
AcDbPolyline
 90
       31
 70
   128
 43
0.0
 10
209333.517
 20
437679.673
 10
209335.695
 20
437683.135
 10
209336.949
 20
437685.128
 10
209350.234
 20
437706.241
 10
209361.128
 20
437723.785
 10
209369.302
 20
437737.633
 10
209377.193
 20
437753.144
 10
209385.27
 20
437772.275
 10
209395.256
 20
437802.895
 10
209398.251
 20
437812.608
 10
209407.745
 20
437843.401
 10
209407.87
 20
437843.846
 10
209421.212
 20
437891.293
 10
209440.081
 20
437958.514
 10
209445.481
 20
437976.836
 10
209443.562
 20
437977.402
 10
209438.159
 20
437959.067
 10
209419.287
 20
437891.834
 10
209405.945
 20
437844.387
 10
209405.826
 20
437843.966
 10
209396.339
 20
437813.197
 10
209393.349
 20
437803.5
 10
209383.395
 20
437772.975
 10
209375.378
 20
437753.987
 10
209367.548
 20
437738.596
 10
209359.418
 20
437724.821
 10
209348.538
 20
437707.301
 10
209335.256
 20
437686.193
 10
209334.002
 20
437684.2
 10
209333.054
 20
437682.693
 10
209333.237
 20
437681.057
  0
LWPOLYLINE
  5
1453
330
1556
100
AcDbEntity
  8
B-XX-OG-TERREIN_CULTUURSCHEIDING-GV
100
AcDbPolyline
 90
        2
 70
   128
 43
0.0
 10
209333.237
 20
437681.057
 42
0.016394
 10
209333.517
 20
437679.673
  0
LWPOLYLINE
  5
1455
330
1556
100
AcDbEntity
  8
B-XX-OG-TERREIN_CULTUURSCHEIDING-GV
100
AcDbPolyline
 90
       27
 70
   129
 43
0.0
 10
209144.086
 20
437968.443
 10
209144.635
 20
437969.691
 10
209145.6
 20
437971.882
 10
209144.712
 20
437972.15
 10
209144.686
 20
437972.082
 10
209142.273
 20
437965.769
 10
209136.631
 20
437949.783
 10
209132.639
 20
437936.746
 10
209128.368
 20
437923.533
 10
209124.4
 20
437912.639
 10
209119.952
 20
437903.139
 10
209118.094
 20
437899.313
 10
209117.755
 20
437898.617
 10
209117.98
 20
437898.163
 10
209118.629
 20
437897.17
 10
209119.527
 20
437896.199
 10
209120.188
 20
437895.726
 10
209123.319
 20
437900.638
 10
209123.465
 20
437901.256
 10
209124.1
 20
437902.901
 10
209125.99
 20
437907.278
 10
209129.104
 20
437915.329
 10
209134.348
 20
437931.765
 10
209143.658
 20
437961.606
 10
209146.439
 20
437960.71
 10
209148.361
 20
437966.946
 10
209144.086
 20
437968.443
  0
LWPOLYLINE
  5
1456
330
1556
100
AcDbEntity
  8
B-XX-GR-HOUTWAL-GV
100
AcDbPolyline
 90
        9
 70
   129
 43
0.0
 10
209429.886
 20
437946.328
 10
209430.767
 20
437949.374
 10
209439.233
 20
437978.656
 10
209437.755
 20
437979.183
 10
209432.56
 20
437962.116
 10
209429.105
 20
437959.724
 10
209423.821
 20
437944.739
 10
209428.76
 20
437946.033
 10
209429.886
 20
437946.328
  0
LWPOLYLINE
  5
1457
330
1556
100
AcDbEntity
  8
B-XX-OG-TERREIN_CULTUURSCHEIDING-GV
100
AcDbPolyline
 90
       10
 70
   129
 43
0.0
 10
209391.952
 20
437819.586
 10
209391.714
 20
437818.789
 10
209386.204
 20
437800.581
 10
209385.803
 20
437799.256
 10
209386.267
 20
437799.546
 10
209387.161
 20
437800.291
 10
209392.672
 20
437818.501
 10
209392.694
 20
437818.573
 10
209392.674
 20
437818.6
 10
209391.952
 20
437819.586
  0
LWPOLYLINE
  5
1458
330
1556
100
AcDbEntity
  8
B-XX-OG-TERREIN_CULTUURSCHEIDING-GV
100
AcDbPolyline
 90
       10
 70
   129
 43
0.0
 10
209351.656
 20
437724.345
 10
209350.933
 20
437723.074
 10
209333.868
 20
437697.089
 10
209334.113
 20
437697.029
 10
209335.498
 20
437697.405
 10
209336.931
 20
437697.793
 10
209339.22
 20
437701.388
 10
209352.27
 20
437722.64
 10
209351.836
 20
437723.845
 10
209351.656
 20
437724.345
  0
LWPOLYLINE
  5
1459
330
1556
100
AcDbEntity
  8
B-XX-OG-TERREIN_CULTUURSCHEIDING-GV
100
AcDbPolyline
 90
       26
 70
   129
 43
0.0
 10
209138.65
 20
437958.508
 10
209135.681
 20
437950.096
 10
209131.685
 20
437937.046
 10
209127.795
 20
437925.013
 10
209127.422
 20
437923.858
 10
209123.475
 20
437913.023
 10
209119.049
 20
437903.569
 10
209117.194
 20
437899.75
 10
209117.755
 20
437898.617
 10
209118.094
 20
437899.313
 10
209119.952
 20
437903.139
 10
209124.4
 20
437912.639
 10
209128.368
 20
437923.533
 10
209132.639
 20
437936.746
 10
209136.631
 20
437949.783
 10
209142.273
 20
437965.769
 10
209144.686
 20
437972.082
 10
209144.712
 20
437972.15
 10
209145.6
 20
437971.882
 10
209147.034
 20
437975.141
 10
209146.046
 20
437975.638
 10
209145.733
 20
437975.818
 10
209145.286
 20
437976.451
 10
209143.752
 20
437972.439
 10
209141.334
 20
437966.114
 10
209138.65
 20
437958.508
  0
LWPOLYLINE
  5
145A
330
1556
100
AcDbEntity
  8
B-XX-OG-TERREIN_CULTUURSCHEIDING-GV
100
AcDbPolyline
 90
       12
 70
   129
 43
0.0
 10
209166.508
 20
438014.515
 10
209166.052
 20
438013.747
 10
209164.337
 20
438010.861
 10
209157.946
 20
437999.509
 10
209154.432
 20
437993.267
 10
209154.919
 20
437993.048
 10
209155.192
 20
437993.668
 10
209166.074
 20
438011.978
 10
209167.822
 20
438013.946
 10
209168.054
 20
438014.339
 10
209167.468
 20
438014.737
 10
209166.508
 20
438014.515
  0
LWPOLYLINE
  5
145B
330
1556
100
AcDbEntity
  8
B-XX-OG-TERREIN_CULTUURSCHEIDING-GV
100
AcDbPolyline
 90
        7
 70
   129
 43
0.0
 10
209419.975
 20
437915.315
 10
209421.09
 20
437915.584
 10
209425.7
 20
437931.851
 10
209426.418
 20
437934.333
 10
209425.472
 20
437934.661
 10
209424.739
 20
437932.126
 10
209419.975
 20
437915.315
  0
LWPOLYLINE
  5
145C
330
1556
100
AcDbEntity
  8
B-XX-OG-TERREIN_CULTUURSCHEIDING-GV
100
AcDbPolyline
 90
       12
 70
   129
 43
0.0
 10
209393.609
 20
437825.144
 10
209393.899
 20
437825.141
 10
209394.436
 20
437825.302
 10
209394.749
 20
437825.469
 10
209398.322
 20
437837.461
 10
209397.472
 20
437837.715
 10
209393.674
 20
437825.909
 10
209390.352
 20
437827.116
 10
209390.142
 20
437826.426
 10
209391.85
 20
437825.732
 10
209393.109
 20
437825.15
 10
209393.609
 20
437825.144
  0
LWPOLYLINE
  5
145D
330
1556
100
AcDbEntity
  8
B-XX-OG-TERREIN_CULTUURSCHEIDING-GV
100
AcDbPolyline
 90
        9
 70
   129
 43
0.0
 10
209146.046
 20
437975.638
 10
209146.22
 20
437976.094
 10
209147.268
 20
437978.835
 10
209153.821
 20
437992.171
 10
209152.909
 20
437992.581
 10
209146.35
 20
437979.235
 10
209145.286
 20
437976.451
 10
209145.733
 20
437975.818
 10
209146.046
 20
437975.638
  0
LWPOLYLINE
  5
145E
330
1556
100
AcDbEntity
  8
B-XX-OG-TERREIN_CULTUURSCHEIDING-GV
100
AcDbPolyline
 90
        2
 70
   128
 43
0.0
 10
209321.165
 20
437682.18
 42
-0.575997
 10
209323.14
 20
437680.83
  0
LWPOLYLINE
  5
1460
330
1556
100
AcDbEntity
  8
B-XX-OG-TERREIN_CULTUURSCHEIDING-GV
100
AcDbPolyline
 90
        8
 70
   129
 43
0.0
 10
209687.204
 20
437882.506
 10
209681.623
 20
437886.236
 10
209680.204
 20
437885.928
 10
209679.491
 20
437884.787
 10
209683.939
 20
437881.819
 10
209684.212
 20
437881.637
 10
209688.185
 20
437881.861
 10
209687.204
 20
437882.506
  0
LWPOLYLINE
  5
1461
330
1556
100
AcDbEntity
  8
B-XX-OG-TERREIN_CULTUURSCHEIDING-GV
100
AcDbPolyline
 90
        5
 70
   129
 43
0.0
 10
209443.562
 20
437977.402
 10
209445.481
 20
437976.836
 10
209446.81
 20
437982.97
 10
209445.348
 20
437983.463
 10
209443.562
 20
437977.402
  0
LWPOLYLINE
  5
1462
330
1556
100
AcDbEntity
  8
B-XX-OG-TERREIN_CULTUURSCHEIDING-GV
100
AcDbPolyline
 90
        8
 70
   129
 43
0.0
 10
209520.786
 20
437993.312
 10
209519.517
 20
437991.528
 10
209549.955
 20
437971.219
 10
209552.126
 20
437969.77
 10
209554.213
 20
437971.035
 10
209553.013
 20
437971.832
 10
209531.802
 20
437985.961
 10
209520.786
 20
437993.312
  0
LWPOLYLINE
  5
1463
330
1556
100
AcDbEntity
  8
B-XX-OG-TERREIN_CULTUURSCHEIDING-GV
100
AcDbPolyline
 90
       14
 70
   129
 43
0.0
 10
209368.703
 20
437751.295
 10
209373.409
 20
437761.1
 10
209374.924
 20
437764.256
 10
209374.242
 20
437765.3
 10
209372.726
 20
437767.618
 10
209372.089
 20
437764.09
 10
209365.025
 20
437749.833
 10
209364.504
 20
437748.637
 10
209364.548
 20
437748.622
 10
209365.648
 20
437748.443
 10
209366.146
 20
437748.457
 10
209366.9
 20
437748.478
 10
209367.605
 20
437749.007
 10
209368.703
 20
437751.295
  0
LWPOLYLINE
  5
1464
330
1556
100
AcDbEntity
  8
B-XX-OG-TERREIN_CULTUURSCHEIDING-GV
100
AcDbPolyline
 90
        7
 70
   129
 43
0.0
 10
209512.175
 20
437989.035
 10
209512.391
 20
437990.092
 10
209503.954
 20
437995.697
 10
209497.382
 20
438000.0
 10
209496.834
 20
437999.163
 10
209503.401
 20
437994.864
 10
209512.175
 20
437989.035
  0
LWPOLYLINE
  5
1465
330
1556
100
AcDbEntity
  8
B-XX-OG-TERREIN_CULTUURSCHEIDING-GV
100
AcDbPolyline
 90
        4
 70
   128
 43
0.0
 10
209425.472
 20
437934.661
 10
209423.547
 20
437935.329
 10
209421.024
 20
437936.204
 10
209420.45
 20
437934.501
  0
LWPOLYLINE
  5
1466
330
1556
100
AcDbEntity
  8
B-XX-OG-TERREIN_CULTUURSCHEIDING-GV
100
AcDbPolyline
 90
        2
 70
   128
 43
0.0
 10
209420.45
 20
437934.501
 42
-0.609776
 10
209423.39
 20
437934.752
  0
LWPOLYLINE
  5
1468
330
1556
100
AcDbEntity
  8
B-XX-OG-TERREIN_CULTUURSCHEIDING-GV
100
AcDbPolyline
 90
        2
 70
   128
 43
0.0
 10
209423.39
 20
437934.752
 42
-0.198593
 10
209423.603
 20
437933.501
  0
LWPOLYLINE
  5
146A
330
1556
100
AcDbEntity
  8
B-XX-OG-TERREIN_CULTUURSCHEIDING-GV
100
AcDbPolyline
 90
        4
 70
   128
 43
0.0
 10
209423.603
 20
437933.501
 10
209421.265
 20
437925.744
 10
209421.038
 20
437924.991
 10
209418.914
 20
437917.946
  0
LWPOLYLINE
  5
146B
330
1556
100
AcDbEntity
  8
B-XX-OG-TERREIN_CULTUURSCHEIDING-GV
100
AcDbPolyline
 90
        2
 70
   128
 43
0.0
 10
209418.914
 20
437917.946
 42
-0.077939
 10
209418.669
 20
437917.502
  0
LWPOLYLINE
  5
146D
330
1556
100
AcDbEntity
  8
B-XX-OG-TERREIN_CULTUURSCHEIDING-GV
100
AcDbPolyline
 90
        2
 70
   128
 43
0.0
 10
209418.669
 20
437917.502
 42
-0.771059
 10
209415.713
 20
437918.755
  0
LWPOLYLINE
  5
146F
330
1556
100
AcDbEntity
  8
B-XX-OG-TERREIN_CULTUURSCHEIDING-GV
100
AcDbPolyline
 90
        7
 70
   128
 43
0.0
 10
209415.713
 20
437918.755
 10
209414.946
 20
437915.952
 10
209417.705
 20
437914.769
 10
209417.937
 20
437914.825
 10
209419.975
 20
437915.315
 10
209424.739
 20
437932.126
 10
209425.472
 20
437934.661
  0
LWPOLYLINE
  5
1470
330
1556
100
AcDbEntity
  8
B-XX-OG-TERREIN_CULTUURSCHEIDING-GV
100
AcDbPolyline
 90
       28
 70
   129
 43
0.0
 10
209519.196
 20
437984.37
 10
209518.031
 20
437983.443
 10
209546.21
 20
437963.99
 10
209551.613
 20
437960.288
 10
209551.763
 20
437960.21
 10
209551.903
 20
437960.115
 10
209564.696
 20
437952.483
 10
209582.169
 20
437940.434
 10
209583.45
 20
437939.551
 10
209621.209
 20
437914.025
 10
209661.081
 20
437887.785
 10
209670.484
 20
437880.901
 10
209670.442
 20
437879.81
 10
209669.484
 20
437879.023
 10
209671.835
 20
437878.464
 10
209671.9
 20
437879.024
 10
209672.012
 20
437879.996
 10
209672.053
 20
437881.261
 10
209672.006
 20
437882.001
 10
209670.413
 20
437883.092
 10
209662.051
 20
437888.661
 10
209639.025
 20
437904.22
 10
209608.722
 20
437924.276
 10
209582.984
 20
437941.621
 10
209557.22
 20
437959.136
 10
209541.464
 20
437969.591
 10
209524.039
 20
437981.153
 10
209519.196
 20
437984.37
  0
LWPOLYLINE
  5
1471
330
1556
100
AcDbEntity
  8
B-XX-OG-TERREIN_CULTUURSCHEIDING-GV
100
AcDbPolyline
 90
        9
 70
   129
 43
0.0
 10
209437.671
 20
437986.052
 10
209440.094
 20
437985.234
 10
209440.925
 20
437988.108
 10
209444.516
 20
438000.283
 10
209446.012
 20
438005.354
 10
209447.348
 20
438009.302
 10
209446.654
 20
438009.426
 10
209445.396
 20
438009.963
 10
209437.671
 20
437986.052
  0
LWPOLYLINE
  5
1472
330
1556
100
AcDbEntity
  8
B-XX-OG-TERREIN_CULTUURSCHEIDING-GV
100
AcDbPolyline
 90
       14
 70
   129
 43
0.0
 10
209374.967
 20
437770.43
 10
209376.148
 20
437770.498
 10
209376.445
 20
437770.515
 10
209377.224
 20
437770.527
 10
209380.417
 20
437779.231
 10
209379.569
 20
437779.858
 10
209379.058
 20
437780.235
 10
209378.866
 20
437780.384
 10
209378.622
 20
437779.769
 10
209377.217
 20
437776.234
 10
209376.903
 20
437775.446
 10
209376.016
 20
437773.214
 10
209375.729
 20
437772.364
 10
209374.967
 20
437770.43
  0
LWPOLYLINE
  5
1473
330
1556
100
AcDbEntity
  8
B-XX-OG-TERREIN_CULTUURSCHEIDING-GV
100
AcDbPolyline
 90
        8
 70
   129
 43
0.0
 10
209519.684
 20
437994.047
 10
209510.764
 20
438000.0
 10
209501.367
 20
438006.271
 10
209500.122
 20
438004.508
 10
209506.828
 20
438000.0
 10
209507.856
 20
437999.309
 10
209518.441
 20
437992.246
 10
209519.684
 20
437994.047
  0
LWPOLYLINE
  5
1474
330
1556
100
AcDbEntity
  8
B-XX-OG-TERREIN_ERF-GV
100
AcDbPolyline
 90
       21
 70
   129
 43
0.0
 10
209465.242
 20
438015.625
 10
209464.412
 20
438012.84
 10
209460.454
 20
438000.0
 10
209452.737
 20
437974.965
 10
209452.631
 20
437974.678
 10
209452.608
 20
437974.685
 10
209443.589
 20
437944.305
 10
209437.837
 20
437924.581
 10
209470.877
 20
437908.923
 10
209482.017
 20
437925.808
 10
209475.021
 20
437930.526
 10
209501.061
 20
437971.985
 10
209499.41
 20
437973.582
 10
209509.368
 20
437988.881
 10
209501.954
 20
437993.535
 10
209500.187
 20
437994.726
 10
209495.947
 20
437997.542
 10
209492.245
 20
438000.0
 10
209483.795
 20
438005.612
 10
209466.144
 20
438017.042
 10
209465.242
 20
438015.625
  0
LWPOLYLINE
  5
1475
330
1556
100
AcDbEntity
  8
B-XX-OG-TERREIN_ERF-GV
100
AcDbPolyline
 90
       19
 70
   129
 43
0.0
 10
209351.072
 20
437806.491
 10
209344.336
 20
437809.544
 10
209312.97
 20
437824.163
 10
209309.702
 20
437825.116
 10
209307.299
 20
437824.048
 10
209305.481
 20
437821.893
 10
209305.337
 20
437821.007
 10
209298.656
 20
437799.562
 10
209298.484
 20
437799.018
 10
209294.729
 20
437787.16
 10
209294.572
 20
437786.697
 10
209302.54
 20
437782.585
 10
209338.373
 20
437762.903
 10
209340.402
 20
437766.561
 10
209341.559
 20
437769.286
 10
209341.19
 20
437769.442
 10
209341.267
 20
437769.623
 10
209336.035
 20
437771.968
 10
209351.072
 20
437806.491
  0
LWPOLYLINE
  5
1476
330
1556
100
AcDbEntity
  8
B-XX-OG-TERREIN_ERF-GV
100
AcDbPolyline
 90
        2
 70
   128
 43
0.0
 10
209291.412
 20
437806.61
 42
0.009803
 10
209291.561
 20
437806.562
  0
LWPOLYLINE
  5
1478
330
1556
100
AcDbEntity
  8
B-XX-OG-TERREIN_ERF-GV
100
AcDbPolyline
 90
        2
 70
   128
 43
0.0
 10
209291.561
 20
437806.562
 42
0.38411
 10
209297.83
 20
437809.501
  0
LWPOLYLINE
  5
147A
330
1556
100
AcDbEntity
  8
B-XX-OG-TERREIN_ERF-GV
100
AcDbPolyline
 90
       13
 70
   129
 43
0.0
 10
209291.616
 20
437708.596
 10
209289.813
 20
437701.103
 10
209225.517
 20
437716.575
 10
209227.305
 20
437724.007
 10
209221.463
 20
437725.412
 10
209224.852
 20
437739.496
 10
209230.928
 20
437738.034
 10
209232.157
 20
437743.125
 10
209290.351
 20
437729.068
 10
209289.134
 20
437724.027
 10
209300.745
 20
437721.233
 10
209297.372
 20
437707.216
 10
209291.616
 20
437708.596
  0
LWPOLYLINE
  5
147B
330
1556
100
AcDbEntity
  8
B-XX-OG-TERREIN_ERF-GV
100
AcDbPolyline
 90
       18
 70
   129
 43
0.0
 10
209134.314
 20
437881.799
 10
209137.547
 20
437880.781
 10
209138.566
 20
437884.014
 10
209148.123
 20
437881.005
 10
209146.293
 20
437875.192
 10
209147.889
 20
437874.646
 10
209145.548
 20
437867.453
 10
209188.893
 20
437853.806
 10
209190.091
 20
437852.331
 10
209187.35
 20
437843.707
 10
209186.352
 20
437843.386
 10
209138.275
 20
437859.266
 10
209141.135
 20
437868.498
 10
209131.113
 20
437871.808
 10
209132.235
 20
437875.198
 10
209124.894
 20
437877.638
 10
209127.045
 20
437884.088
 10
209134.314
 20
437881.799
  0
LWPOLYLINE
  5
147C
330
1556
100
AcDbEntity
  8
B-XX-OG-TERREIN_ERF-GV
100
AcDbPolyline
 90
        7
 70
   129
 43
0.0
 10
209288.481
 20
437737.825
 10
209280.046
 20
437742.337
 10
209289.182
 20
437759.418
 10
209297.617
 20
437754.907
 10
209329.029
 20
437738.106
 10
209319.893
 20
437721.024
 10
209288.481
 20
437737.825
  0
LWPOLYLINE
  5
147D
330
1556
100
AcDbEntity
  8
B-XX-OG-TERREIN_ERF-GV
100
AcDbPolyline
 90
       15
 70
   129
 43
0.0
 10
209287.076
 20
437821.923
 10
209287.875
 20
437827.782
 10
209286.471
 20
437827.974
 10
209285.502
 20
437828.106
 10
209285.866
 20
437830.777
 10
209285.927
 20
437831.223
 10
209292.794
 20
437830.297
 10
209292.406
 20
437827.163
 10
209297.964
 20
437826.405
 10
209298.21
 20
437826.371
 10
209297.471
 20
437820.955
 10
209297.132
 20
437818.47
 10
209296.521
 20
437813.989
 10
209286.186
 20
437815.4
 10
209287.076
 20
437821.923
  0
LWPOLYLINE
  5
147E
330
1556
100
AcDbEntity
  8
B-XX-OG-TERREIN_ERF-GV
100
AcDbPolyline
 90
       14
 70
   129
 43
0.0
 10
209219.682
 20
437795.435
 10
209219.922
 20
437798.534
 10
209229.721
 20
437797.776
 10
209229.159
 20
437790.508
 10
209228.916
 20
437787.17
 10
209226.639
 20
437784.845
 10
209224.561
 20
437784.998
 10
209222.791
 20
437787.616
 10
209219.169
 20
437787.885
 10
209218.738
 20
437782.322
 10
209218.645
 20
437781.119
 10
209211.9
 20
437781.665
 10
209212.824
 20
437795.923
 10
209219.682
 20
437795.435
  0
LWPOLYLINE
  5
147F
330
1556
100
AcDbEntity
  8
B-XX-OG-TERREIN_ERF-GV
100
AcDbPolyline
 90
        7
 70
   129
 43
0.0
 10
209156.265
 20
437868.936
 10
209159.076
 20
437877.448
 10
209201.505
 20
437863.509
 10
209198.674
 20
437854.933
 10
209178.35
 20
437861.644
 10
209159.567
 20
437867.846
 10
209156.265
 20
437868.936
  0
LWPOLYLINE
  5
1480
330
1556
100
AcDbEntity
  8
B-XX-OG-TERREIN_ERF-GV
100
AcDbPolyline
 90
        5
 70
   129
 43
0.0
 10
209368.404
 20
437782.31
 10
209365.21
 20
437774.543
 10
209354.189
 20
437779.074
 10
209357.383
 20
437786.841
 10
209368.404
 20
437782.31
  0
LWPOLYLINE
  5
1481
330
1556
100
AcDbEntity
  8
B-XX-OG-TERREIN_ERF-GV
100
AcDbPolyline
 90
       11
 70
   129
 43
0.0
 10
209329.483
 20
437723.224
 10
209328.657
 20
437723.664
 10
209332.891
 20
437731.612
 10
209338.269
 20
437728.89
 10
209334.36
 20
437721.166
 10
209338.598
 20
437719.021
 10
209334.605
 20
437711.13
 10
209325.655
 20
437715.66
 10
209326.259
 20
437716.853
 10
209327.352
 20
437719.013
 10
209329.483
 20
437723.224
  0
LWPOLYLINE
  5
1482
330
1556
100
AcDbEntity
  8
B-XX-OG-TERREIN_ERF-GV
100
AcDbPolyline
 90
       17
 70
   129
 43
0.0
 10
209389.203
 20
437823.338
 10
209390.142
 20
437826.426
 10
209390.352
 20
437827.116
 10
209393.674
 20
437825.909
 10
209397.472
 20
437837.715
 10
209397.931
 20
437839.143
 10
209400.098
 20
437845.879
 10
209399.821
 20
437845.991
 10
209398.832
 20
437846.388
 10
209398.723
 20
437846.433
 10
209396.228
 20
437847.465
 10
209355.138
 20
437864.459
 10
209346.339
 20
437841.288
 10
209367.887
 20
437831.518
 10
209386.855
 20
437823.186
 10
209387.978
 20
437819.31
 10
209389.203
 20
437823.338
  0
LWPOLYLINE
  5
1483
330
1556
100
AcDbEntity
  8
B-XX-OG-TERREIN_ERF-GV
100
AcDbPolyline
 90
        9
 70
   129
 43
0.0
 10
209355.124
 20
437842.817
 10
209358.226
 20
437849.964
 10
209359.556
 20
437849.35
 10
209358.62
 20
437847.035
 10
209359.256
 20
437846.713
 10
209358.347
 20
437844.224
 10
209359.62
 20
437843.669
 10
209358.626
 20
437841.325
 10
209355.124
 20
437842.817
  0
LWPOLYLINE
  5
1484
330
1556
100
AcDbEntity
  8
B-XX-OG-TERREIN_ERF-GV
100
AcDbPolyline
 90
       11
 70
   129
 43
0.0
 10
209366.113
 20
437848.562
 10
209369.214
 20
437855.586
 10
209375.769
 20
437852.694
 10
209374.011
 20
437848.613
 10
209380.41
 20
437845.657
 10
209376.673
 20
437837.311
 10
209370.363
 20
437840.136
 10
209371.564
 20
437842.819
 10
209372.873
 20
437845.742
 10
209370.803
 20
437846.605
 10
209366.113
 20
437848.562
  0
LWPOLYLINE
  5
1485
330
1556
100
AcDbEntity
  8
B-XX-OG-TERREIN_ERF-GV
100
AcDbPolyline
 90
       12
 70
   128
 43
0.0
 10
209488.083
 20
437904.264
 10
209507.016
 20
437891.464
 10
209510.134
 20
437895.969
 10
209514.601
 20
437893.256
 10
209526.48
 20
437885.378
 10
209539.886
 20
437876.449
 10
209544.739
 20
437885.491
 10
209561.15
 20
437915.173
 10
209546.341
 20
437924.87
 10
209560.966
 20
437950.632
 10
209561.089
 20
437950.879
 10
209550.135
 20
437957.836
  0
LWPOLYLINE
  5
1486
330
1556
100
AcDbEntity
  8
B-XX-OG-TERREIN_ERF-GV
100
AcDbPolyline
 90
        2
 70
   128
 43
0.0
 10
209550.135
 20
437957.836
 42
-0.884989
 10
209551.613
 20
437960.288
  0
LWPOLYLINE
  5
1488
330
1556
100
AcDbEntity
  8
B-XX-OG-TERREIN_ERF-GV
100
AcDbPolyline
 90
       14
 70
   128
 43
0.0
 10
209551.613
 20
437960.288
 10
209546.21
 20
437963.99
 10
209518.031
 20
437983.443
 10
209517.909
 20
437983.52
 10
209511.827
 20
437987.337
 10
209509.368
 20
437988.881
 10
209499.41
 20
437973.582
 10
209501.061
 20
437971.985
 10
209475.021
 20
437930.526
 10
209482.017
 20
437925.808
 10
209470.877
 20
437908.923
 10
209471.171
 20
437908.783
 10
209484.477
 20
437899.038
 10
209488.083
 20
437904.264
  0
LWPOLYLINE
  5
1489
330
1556
100
AcDbEntity
  8
B-XX-OG-TERREIN_ERF-GV
100
AcDbPolyline
 90
        7
 70
   129
 43
0.0
 10
209510.134
 20
437895.969
 10
209510.0
 20
437896.059
 10
209489.3
 20
437909.907
 10
209485.312
 20
437912.575
 10
209491.707
 20
437922.134
 10
209516.529
 20
437905.527
 10
209510.134
 20
437895.969
  0
LWPOLYLINE
  5
148A
330
1556
100
AcDbEntity
  8
B-XX-OG-TERREIN_ERF-GV
100
AcDbPolyline
 90
        5
 70
   129
 43
0.0
 10
209496.108
 20
437945.603
 10
209506.678
 20
437939.086
 10
209498.411
 20
437926.06
 10
209487.977
 20
437932.667
 10
209496.108
 20
437945.603
  0
LWPOLYLINE
  5
148B
330
1556
100
AcDbEntity
  8
B-XX-OG-TERREIN_ERF-GV
100
AcDbPolyline
 90
       20
 70
   129
 43
0.0
 10
209531.345
 20
437935.914
 10
209531.613
 20
437936.315
 10
209529.605
 20
437937.637
 10
209529.492
 20
437938.745
 10
209530.785
 20
437940.632
 10
209532.036
 20
437940.917
 10
209533.867
 20
437939.696
 10
209535.255
 20
437941.778
 10
209541.604
 20
437937.544
 10
209537.957
 20
437932.075
 10
209541.617
 20
437929.634
 10
209535.748
 20
437920.832
 10
209534.983
 20
437921.343
 10
209530.946
 20
437915.289
 10
209523.938
 20
437919.962
 10
209527.983
 20
437926.027
 10
209524.966
 20
437928.039
 10
209529.365
 20
437934.635
 10
209530.145
 20
437934.115
 10
209531.345
 20
437935.914
  0
LWPOLYLINE
  5
148C
330
1556
100
AcDbEntity
  8
B-XX-OG-TERREIN_ERF-GV
100
AcDbPolyline
 90
        7
 70
   129
 43
0.0
 10
209165.77
 20
437975.403
 10
209163.461
 20
437970.276
 10
209162.984
 20
437969.216
 10
209153.351
 20
437973.553
 10
209160.404
 20
437989.217
 10
209170.037
 20
437984.88
 10
209165.77
 20
437975.403
  0
LWPOLYLINE
  5
148D
330
1556
100
AcDbEntity
  8
B-XX-OG-TERREIN_ERF-GV
100
AcDbPolyline
 90
        5
 70
   129
 43
0.0
 10
209187.462
 20
437976.434
 10
209175.585
 20
437982.255
 10
209179.407
 20
437990.053
 10
209191.284
 20
437984.233
 10
209187.462
 20
437976.434
  0
LWPOLYLINE
  5
148E
330
1556
100
AcDbEntity
  8
B-XX-OG-TERREIN_ERF-GV
100
AcDbPolyline
 90
       16
 70
   129
 43
0.0
 10
209416.636
 20
437976.003
 10
209417.456
 20
437978.218
 10
209418.833
 20
437977.708
 10
209421.512
 20
437984.949
 10
209430.876
 20
437981.484
 10
209427.254
 20
437971.697
 10
209424.095
 20
437972.866
 10
209420.884
 20
437964.189
 10
209420.751
 20
437964.238
 10
209420.331
 20
437962.934
 10
209419.201
 20
437962.345
 10
209413.629
 20
437964.208
 10
209413.041
 20
437965.516
 10
209413.499
 20
437966.921
 10
209413.302
 20
437966.994
 10
209416.636
 20
437976.003
  0
LWPOLYLINE
  5
148F
330
1556
100
AcDbEntity
  8
B-XX-OG-TERREIN_ERF-GV
100
AcDbPolyline
 90
        5
 70
   129
 43
0.0
 10
209398.388
 20
437977.924
 10
209392.781
 20
437963.887
 10
209386.654
 20
437966.335
 10
209392.261
 20
437980.371
 10
209398.388
 20
437977.924
  0
LWPOLYLINE
  5
1490
330
1556
100
AcDbEntity
  8
B-XX-OG-TERREIN_ERF-GV
100
AcDbPolyline
 90
        7
 70
   129
 43
0.0
 10
209380.784
 20
437903.213
 10
209377.158
 20
437905.129
 10
209378.467
 20
437907.607
 10
209382.096
 20
437905.689
 10
209385.673
 20
437903.8
 10
209384.364
 20
437901.322
 10
209380.784
 20
437903.213
  0
LWPOLYLINE
  5
1491
330
1556
100
AcDbEntity
  8
B-XX-OG-TERREIN_ERF-GV
100
AcDbPolyline
 90
        9
 70
   129
 43
0.0
 10
209387.629
 20
437907.502
 10
209384.059
 20
437909.39
 10
209380.424
 20
437911.312
 10
209374.844
 20
437914.263
 10
209379.094
 20
437922.298
 10
209388.311
 20
437917.411
 10
209397.515
 20
437912.532
 10
209393.276
 20
437904.516
 10
209387.629
 20
437907.502
  0
LWPOLYLINE
  5
1492
330
1556
100
AcDbEntity
  8
B-XX-OG-TERREIN_ERF-GV
100
AcDbPolyline
 90
       11
 70
   129
 43
0.0
 10
209396.488
 20
437927.252
 10
209387.773
 20
437930.682
 10
209390.928
 20
437938.929
 10
209391.75
 20
437938.615
 10
209392.679
 20
437941.043
 10
209400.604
 20
437938.011
 10
209408.529
 20
437934.979
 10
209407.605
 20
437932.565
 10
209408.424
 20
437932.242
 10
209405.116
 20
437923.856
 10
209396.488
 20
437927.252
  0
LWPOLYLINE
  5
1493
330
1556
100
AcDbEntity
  8
B-XX-OG-TERREIN_ERF-GV
100
AcDbPolyline
 90
        8
 70
   129
 43
0.0
 10
209565.333
 20
437709.572
 10
209562.595
 20
437704.16
 10
209552.029
 20
437709.468
 10
209560.264
 20
437725.539
 10
209570.625
 20
437720.154
 10
209574.078
 20
437714.778
 10
209570.087
 20
437707.101
 10
209565.333
 20
437709.572
  0
LWPOLYLINE
  5
1494
330
1556
100
AcDbEntity
  8
B-XX-OG-TERREIN_ERF-GV
100
AcDbPolyline
 90
        5
 70
   129
 43
0.0
 10
209587.181
 20
437694.723
 10
209596.102
 20
437690.236
 10
209586.212
 20
437671.782
 10
209577.574
 20
437676.418
 10
209587.181
 20
437694.723
  0
LWPOLYLINE
  5
1495
330
1556
100
AcDbEntity
  8
B-XX-OG-TERREIN_ERF-GV
100
AcDbPolyline
 90
        7
 70
   129
 43
0.0
 10
209624.118
 20
437687.376
 10
209608.938
 20
437659.307
 10
209590.009
 20
437669.545
 10
209600.841
 20
437690.0
 10
209610.012
 20
437684.96
 10
209614.187
 20
437692.586
 10
209624.118
 20
437687.376
  0
LWPOLYLINE
  5
1496
330
1556
100
AcDbEntity
  8
B-XX-OG-TERREIN_ERF-GV
100
AcDbPolyline
 90
        7
 70
   129
 43
0.0
 10
209578.681
 20
437688.43
 10
209573.45
 20
437678.524
 10
209541.101
 20
437696.632
 10
209545.203
 20
437704.331
 10
209558.373
 20
437697.088
 10
209559.971
 20
437699.126
 10
209578.681
 20
437688.43
  0
LWPOLYLINE
  5
1497
330
1556
100
AcDbEntity
  8
B-XX-OG-TERREIN_ERF-GV
100
AcDbPolyline
 90
        9
 70
   129
 43
0.0
 10
209571.278
 20
437706.399
 10
209578.042
 20
437719.305
 10
209586.392
 20
437714.93
 10
209585.95
 20
437714.086
 10
209588.826
 20
437712.578
 10
209584.735
 20
437704.774
 10
209581.762
 20
437706.332
 10
209579.531
 20
437702.074
 10
209571.278
 20
437706.399
  0
TEXT
  5
1498
330
1556
100
AcDbEntity
  8
B-XX-OG-BEBOUWING-T18
100
AcDbText
 10
209401.385135
 20
437929.957341
 30
0.0
 40
1.8
  1
17d
 50
338.5
  7
NLCS-ISO-M-T18
 72
     1
 11
209403.306
 21
437930.168
 31
0.0
100
AcDbText
 73
     2
  0
LWPOLYLINE
  5
1499
330
1556
100
AcDbEntity
  8
B-XX-OG-BEBOUWING-GV
100
AcDbPolyline
 90
        7
 70
   129
 43
0.0
 10
209400.604
 20
437938.011
 10
209396.488
 20
437927.252
 10
209405.116
 20
437923.856
 10
209408.424
 20
437932.242
 10
209407.605
 20
437932.565
 10
209408.529
 20
437934.979
 10
209400.604
 20
437938.011
  0
TEXT
  5
149A
330
1556
100
AcDbEntity
  8
B-XX-OG-BEBOUWING-T18
100
AcDbText
 10
209360.725263
 20
437779.737124
 30
0.0
 40
1.8
  1
13
 50
337.7
  7
NLCS-ISO-M-T18
 72
     1
 11
209362.066
 21
437780.16
 31
0.0
100
AcDbText
 73
     2
  0
LWPOLYLINE
  5
149B
330
1556
100
AcDbEntity
  8
B-XX-OG-BEBOUWING-GV
100
AcDbPolyline
 90
        5
 70
   129
 43
0.0
 10
209368.404
 20
437782.31
 10
209357.383
 20
437786.841
 10
209354.189
 20
437779.074
 10
209365.21
 20
437774.543
 10
209368.404
 20
437782.31
  0
LWPOLYLINE
  5
149C
330
1556
100
AcDbEntity
  8
B-XX-OG-BEBOUWING-GV
100
AcDbPolyline
 90
        7
 70
   129
 43
0.0
 10
209510.134
 20
437895.969
 10
209516.529
 20
437905.527
 10
209491.707
 20
437922.134
 10
209485.312
 20
437912.575
 10
209489.3
 20
437909.907
 10
209510.0
 20
437896.059
 10
209510.134
 20
437895.969
  0
TEXT
  5
149D
330
1556
100
AcDbEntity
  8
B-XX-OG-BEBOUWING-T18
100
AcDbText
 10
209289.776848
 20
437820.1229
 30
0.0
 40
1.8
  1
15
 50
352.2
  7
NLCS-ISO-M-T18
 72
     1
 11
209290.969
 21
437820.868
 31
0.0
100
AcDbText
 73
     2
  0
LWPOLYLINE
  5
149E
330
1556
100
AcDbEntity
  8
B-XX-OG-BEBOUWING-GV
100
AcDbPolyline
 90
       15
 70
   129
 43
0.0
 10
209287.875
 20
437827.782
 10
209287.076
 20
437821.923
 10
209286.186
 20
437815.4
 10
209296.521
 20
437813.989
 10
209297.132
 20
437818.47
 10
209297.471
 20
437820.955
 10
209298.21
 20
437826.371
 10
209297.964
 20
437826.405
 10
209292.406
 20
437827.163
 10
209292.794
 20
437830.297
 10
209285.927
 20
437831.223
 10
209285.866
 20
437830.777
 10
209285.502
 20
437828.106
 10
209286.471
 20
437827.974
 10
209287.875
 20
437827.782
  0
TEXT
  5
149F
330
1556
100
AcDbEntity
  8
B-XX-OG-BEBOUWING-T18
100
AcDbText
 10
209381.095619
 20
437914.461398
 30
0.0
 40
1.8
  1
17b
 50
332.2
  7
NLCS-ISO-M-T18
 72
     1
 11
209383.028
 21
437914.46
 31
0.0
100
AcDbText
 73
     2
  0
LWPOLYLINE
  5
14A0
330
1556
100
AcDbEntity
  8
B-XX-OG-BEBOUWING-GV
100
AcDbPolyline
 90
        6
 70
   129
 43
0.0
 10
209384.059
 20
437909.39
 10
209388.311
 20
437917.411
 10
209379.094
 20
437922.298
 10
209374.844
 20
437914.263
 10
209380.424
 20
437911.312
 10
209384.059
 20
437909.39
  0
LWPOLYLINE
  5
14A1
330
1556
100
AcDbEntity
  8
B-XX-OG-BEBOUWING-GV
100
AcDbPolyline
 90
       12
 70
   129
 43
0.0
 10
209340.402
 20
437766.561
 10
209347.74
 20
437763.445
 10
209353.178
 20
437776.251
 10
209345.287
 20
437779.602
 10
209345.162
 20
437779.307
 10
209343.29
 20
437780.102
 10
209342.009
 20
437777.084
 10
209344.065
 20
437776.211
 10
209341.267
 20
437769.623
 10
209341.19
 20
437769.442
 10
209341.559
 20
437769.286
 10
209340.402
 20
437766.561
  0
LWPOLYLINE
  5
14A2
330
1556
100
AcDbEntity
  8
B-XX-OG-BEBOUWING-GV
100
AcDbPolyline
 90
        9
 70
   129
 43
0.0
 10
209355.124
 20
437842.817
 10
209358.626
 20
437841.325
 10
209359.62
 20
437843.669
 10
209358.347
 20
437844.224
 10
209359.256
 20
437846.713
 10
209358.62
 20
437847.035
 10
209359.556
 20
437849.35
 10
209358.226
 20
437849.964
 10
209355.124
 20
437842.817
  0
LWPOLYLINE
  5
14A3
330
1556
100
AcDbEntity
  8
B-XX-OG-BEBOUWING-GV
100
AcDbPolyline
 90
        7
 70
   129
 43
0.0
 10
209402.728
 20
437984.476
 10
209405.534
 20
437992.61
 10
209375.207
 20
438003.224
 10
209374.078
 20
438000.0
 10
209372.431
 20
437995.294
 10
209391.294
 20
437988.579
 10
209402.728
 20
437984.476
  0
LWPOLYLINE
  5
14A4
330
1556
100
AcDbEntity
  8
B-XX-OG-BEBOUWING-GV
100
AcDbPolyline
 90
        5
 70
   129
 43
0.0
 10
209496.108
 20
437945.603
 10
209487.977
 20
437932.667
 10
209498.411
 20
437926.06
 10
209506.678
 20
437939.086
 10
209496.108
 20
437945.603
  0
LWPOLYLINE
  5
14A5
330
1556
100
AcDbEntity
  8
B-XX-OG-BEBOUWING-GV
100
AcDbPolyline
 90
        7
 70
   129
 43
0.0
 10
209159.076
 20
437877.448
 10
209156.265
 20
437868.936
 10
209159.567
 20
437867.846
 10
209178.35
 20
437861.644
 10
209198.674
 20
437854.933
 10
209201.505
 20
437863.509
 10
209159.076
 20
437877.448
  0
TEXT
  5
14A6
330
1556
100
AcDbEntity
  8
B-XX-OG-BEBOUWING-T18
100
AcDbText
 10
209159.007453
 20
437977.910991
 30
0.0
 40
1.8
  1
3
 50
335.7
  7
NLCS-ISO-M-T18
 72
     1
 11
209159.952
 21
437978.472
 31
0.0
100
AcDbText
 73
     2
  0
LWPOLYLINE
  5
14A7
330
1556
100
AcDbEntity
  8
B-XX-OG-BEBOUWING-GV
100
AcDbPolyline
 90
        7
 70
   129
 43
0.0
 10
209163.461
 20
437970.276
 10
209165.77
 20
437975.403
 10
209170.037
 20
437984.88
 10
209160.404
 20
437989.217
 10
209153.351
 20
437973.553
 10
209162.984
 20
437969.216
 10
209163.461
 20
437970.276
  0
TEXT
  5
14A8
330
1556
100
AcDbEntity
  8
B-XX-OG-BEBOUWING-T18
100
AcDbText
 10
209223.973523
 20
437793.305651
 30
0.0
 40
1.8
  1
13A
 50
355.6
  7
NLCS-ISO-M-T18
 72
     1
 11
209225.927
 21
437794.058
 31
0.0
100
AcDbText
 73
     2
  0
LWPOLYLINE
  5
14A9
330
1556
100
AcDbEntity
  8
B-XX-OG-BEBOUWING-GV
100
AcDbPolyline
 90
       14
 70
   129
 43
0.0
 10
209229.159
 20
437790.508
 10
209229.721
 20
437797.776
 10
209219.922
 20
437798.534
 10
209219.682
 20
437795.435
 10
209212.824
 20
437795.923
 10
209211.9
 20
437781.665
 10
209218.645
 20
437781.119
 10
209218.738
 20
437782.322
 10
209219.169
 20
437787.885
 10
209222.791
 20
437787.616
 10
209224.561
 20
437784.998
 10
209226.639
 20
437784.845
 10
209228.916
 20
437787.17
 10
209229.159
 20
437790.508
  0
LWPOLYLINE
  5
14AA
330
1556
100
AcDbEntity
  8
B-XX-OG-BEBOUWING-GV
100
AcDbPolyline
 90
       10
 70
   129
 43
0.0
 10
209261.526
 20
437814.067
 10
209263.335
 20
437813.647
 10
209272.907
 20
437811.425
 10
209273.933
 20
437816.285
 10
209278.503
 20
437837.94
 10
209269.027
 20
437839.593
 10
209268.606
 20
437837.676
 10
209264.655
 20
437819.664
 10
209262.914
 20
437820.046
 10
209261.526
 20
437814.067
  0
TEXT
  5
14AB
330
1556
100
AcDbEntity
  8
B-XX-OG-BEBOUWING-T18
100
AcDbText
 10
209417.488178
 20
437976.63242
 30
0.0
 40
1.8
  1
19-19a
 50
339.7
  7
NLCS-ISO-M-T18
 72
     1
 11
209421.008
 21
437976.29
 31
0.0
100
AcDbText
 73
     2
  0
LWPOLYLINE
  5
14AC
330
1556
100
AcDbEntity
  8
B-XX-OG-BEBOUWING-GV
100
AcDbPolyline
 90
       16
 70
   129
 43
0.0
 10
209418.833
 20
437977.708
 10
209417.456
 20
437978.218
 10
209416.636
 20
437976.003
 10
209413.302
 20
437966.994
 10
209413.499
 20
437966.921
 10
209413.041
 20
437965.516
 10
209413.629
 20
437964.208
 10
209419.201
 20
437962.345
 10
209420.331
 20
437962.934
 10
209420.751
 20
437964.238
 10
209420.884
 20
437964.189
 10
209424.095
 20
437972.866
 10
209427.254
 20
437971.697
 10
209430.876
 20
437981.484
 10
209421.512
 20
437984.949
 10
209418.833
 20
437977.708
  0
LWPOLYLINE
  5
14AD
330
1556
100
AcDbEntity
  8
B-XX-OG-BEBOUWING-GV
100
AcDbPolyline
 90
        9
 70
   129
 43
0.0
 10
209338.373
 20
437762.903
 10
209302.54
 20
437782.585
 10
209293.704
 20
437766.72
 10
209315.611
 20
437754.686
 10
209324.196
 20
437750.089
 10
209321.787
 20
437745.33
 10
209330.688
 20
437740.454
 10
209342.199
 20
437760.801
 10
209338.373
 20
437762.903
  0
LWPOLYLINE
  5
14AE
330
1556
100
AcDbEntity
  8
B-XX-OG-BEBOUWING-GV
100
AcDbPolyline
 90
        7
 70
   129
 43
0.0
 10
209578.681
 20
437688.43
 10
209559.971
 20
437699.126
 10
209558.373
 20
437697.088
 10
209545.203
 20
437704.331
 10
209541.101
 20
437696.632
 10
209573.45
 20
437678.524
 10
209578.681
 20
437688.43
  0
LWPOLYLINE
  5
14AF
330
1556
100
AcDbEntity
  8
B-XX-OG-BEBOUWING-GV
100
AcDbPolyline
 90
        9
 70
   129
 43
0.0
 10
209224.852
 20
437739.496
 10
209221.463
 20
437725.412
 10
209227.305
 20
437724.007
 10
209291.616
 20
437708.596
 10
209297.372
 20
437707.216
 10
209300.745
 20
437721.233
 10
209289.134
 20
437724.027
 10
209230.928
 20
437738.034
 10
209224.852
 20
437739.496
  0
TEXT
  5
14B0
330
1556
100
AcDbEntity
  8
B-XX-OG-BEBOUWING-T18
100
AcDbText
 10
209331.165191
 20
437716.346573
 30
0.0
 40
1.8
  1
11
 50
333.1
  7
NLCS-ISO-M-T18
 72
     1
 11
209332.375
 21
437716.742
 31
0.0
100
AcDbText
 73
     2
  0
LWPOLYLINE
  5
14B1
330
1556
100
AcDbEntity
  8
B-XX-OG-BEBOUWING-GV
100
AcDbPolyline
 90
       11
 70
   129
 43
0.0
 10
209334.36
 20
437721.166
 10
209338.269
 20
437728.89
 10
209332.891
 20
437731.612
 10
209328.657
 20
437723.664
 10
209329.483
 20
437723.224
 10
209327.352
 20
437719.013
 10
209326.259
 20
437716.853
 10
209325.655
 20
437715.66
 10
209334.605
 20
437711.13
 10
209338.598
 20
437719.021
 10
209334.36
 20
437721.166
  0
LWPOLYLINE
  5
14B2
330
1556
100
AcDbEntity
  8
B-XX-OG-BEBOUWING-GV
100
AcDbPolyline
 90
        5
 70
   129
 43
0.0
 10
209587.181
 20
437694.723
 10
209577.574
 20
437676.418
 10
209586.212
 20
437671.782
 10
209596.102
 20
437690.236
 10
209587.181
 20
437694.723
  0
LWPOLYLINE
  5
14B3
330
1556
100
AcDbEntity
  8
B-XX-OG-BEBOUWING-GV
100
AcDbPolyline
 90
        5
 70
   129
 43
0.0
 10
209186.311
 20
437834.241
 10
209196.554
 20
437830.75
 10
209198.576
 20
437836.681
 10
209188.333
 20
437840.173
 10
209186.311
 20
437834.241
  0
LWPOLYLINE
  5
14B4
330
1556
100
AcDbEntity
  8
B-XX-OG-BEBOUWING-GV
100
AcDbPolyline
 90
       10
 70
   129
 43
0.0
 10
209141.135
 20
437868.498
 10
209138.275
 20
437859.266
 10
209186.352
 20
437843.386
 10
209187.35
 20
437843.707
 10
209190.091
 20
437852.331
 10
209188.893
 20
437853.806
 10
209145.548
 20
437867.453
 10
209144.009
 20
437867.937
 10
209143.894
 20
437867.596
 10
209141.135
 20
437868.498
  0
TEXT
  5
14B5
330
1556
100
AcDbEntity
  8
B-XX-OG-BEBOUWING-T18
100
AcDbText
 10
209388.703624
 20
437911.655771
 30
0.0
 40
1.8
  1
17a
 50
332.1
  7
NLCS-ISO-M-T18
 72
     1
 11
209390.636
 21
437911.651
 31
0.0
100
AcDbText
 73
     2
  0
LWPOLYLINE
  5
14B6
330
1556
100
AcDbEntity
  8
B-XX-OG-BEBOUWING-GV
100
AcDbPolyline
 90
        6
 70
   129
 43
0.0
 10
209388.311
 20
437917.411
 10
209384.059
 20
437909.39
 10
209387.629
 20
437907.502
 10
209393.276
 20
437904.516
 10
209397.515
 20
437912.532
 10
209388.311
 20
437917.411
  0
TEXT
  5
14B7
330
1556
100
AcDbEntity
  8
B-XX-OG-BEBOUWING-T18
100
AcDbText
 10
209531.963102
 20
437938.083425
 30
0.0
 40
1.8
  1
43-43a
 50
326.3
  7
NLCS-ISO-M-T18
 72
     1
 11
209535.757
 21
437936.635
 31
0.0
100
AcDbText
 73
     2
  0
LWPOLYLINE
  5
14B8
330
1556
100
AcDbEntity
  8
B-XX-OG-BEBOUWING-GV
100
AcDbPolyline
 90
       20
 70
   129
 43
0.0
 10
209531.613
 20
437936.315
 10
209531.345
 20
437935.914
 10
209530.145
 20
437934.115
 10
209529.365
 20
437934.635
 10
209524.966
 20
437928.039
 10
209527.983
 20
437926.027
 10
209523.938
 20
437919.962
 10
209530.946
 20
437915.289
 10
209534.983
 20
437921.343
 10
209535.748
 20
437920.832
 10
209541.617
 20
437929.634
 10
209537.957
 20
437932.075
 10
209541.604
 20
437937.544
 10
209535.255
 20
437941.778
 10
209533.867
 20
437939.696
 10
209532.036
 20
437940.917
 10
209530.785
 20
437940.632
 10
209529.492
 20
437938.745
 10
209529.605
 20
437937.637
 10
209531.613
 20
437936.315
  0
LWPOLYLINE
  5
14B9
330
1556
100
AcDbEntity
  8
B-XX-OG-BEBOUWING-GV
100
AcDbPolyline
 90
        5
 70
   129
 43
0.0
 10
209380.784
 20
437903.213
 10
209382.096
 20
437905.689
 10
209378.467
 20
437907.607
 10
209377.158
 20
437905.129
 10
209380.784
 20
437903.213
  0
TEXT
  5
14BA
330
1556
100
AcDbEntity
  8
B-XX-OG-BEBOUWING-T18
100
AcDbText
 10
209576.511175
 20
437710.286473
 30
0.0
 40
1.8
  1
41
 50
332.4
  7
NLCS-ISO-M-T18
 72
     1
 11
209577.965
 21
437710.542
 31
0.0
100
AcDbText
 73
     2
  0
LWPOLYLINE
  5
14BB
330
1556
100
AcDbEntity
  8
B-XX-OG-BEBOUWING-GV
100
AcDbPolyline
 90
        9
 70
   129
 43
0.0
 10
209571.278
 20
437706.399
 10
209579.531
 20
437702.074
 10
209581.762
 20
437706.332
 10
209584.735
 20
437704.774
 10
209588.826
 20
437712.578
 10
209585.95
 20
437714.086
 10
209586.392
 20
437714.93
 10
209578.042
 20
437719.305
 10
209571.278
 20
437706.399
  0
TEXT
  5
14BC
330
1556
100
AcDbEntity
  8
B-XX-OG-BEBOUWING-T18
100
AcDbText
 10
209302.371435
 20
437731.074734
 30
0.0
 40
1.8
  1
11a
 50
331.9
  7
NLCS-ISO-M-T18
 72
     1
 11
209304.145
 21
437731.148
 31
0.0
100
AcDbText
 73
     2
  0
LWPOLYLINE
  5
14BD
330
1556
100
AcDbEntity
  8
B-XX-OG-BEBOUWING-GV
100
AcDbPolyline
 90
        5
 70
   129
 43
0.0
 10
209288.481
 20
437737.825
 10
209319.893
 20
437721.024
 10
209329.029
 20
437738.106
 10
209297.617
 20
437754.907
 10
209288.481
 20
437737.825
  0
LWPOLYLINE
  5
14BE
330
1556
100
AcDbEntity
  8
B-XX-OG-BEBOUWING-GV
100
AcDbPolyline
 90
        8
 70
   129
 43
0.0
 10
209570.625
 20
437720.154
 10
209560.264
 20
437725.539
 10
209552.029
 20
437709.468
 10
209562.595
 20
437704.16
 10
209565.333
 20
437709.572
 10
209570.087
 20
437707.101
 10
209574.078
 20
437714.778
 10
209570.625
 20
437720.154
  0
LWPOLYLINE
  5
14BF
330
1556
100
AcDbEntity
  8
B-XX-OG-BEBOUWING-GV
100
AcDbPolyline
 90
        5
 70
   129
 43
0.0
 10
209187.462
 20
437976.434
 10
209191.284
 20
437984.233
 10
209179.407
 20
437990.053
 10
209175.585
 20
437982.255
 10
209187.462
 20
437976.434
  0
TEXT
  5
14C0
330
1556
100
AcDbEntity
  8
B-XX-OG-BEBOUWING-T18
100
AcDbText
 10
209391.255525
 20
437933.121132
 30
0.0
 40
1.8
  1
17c
 50
339.1
  7
NLCS-ISO-M-T18
 72
     1
 11
209393.09
 21
437933.384
 31
0.0
100
AcDbText
 73
     2
  0
LWPOLYLINE
  5
14C1
330
1556
100
AcDbEntity
  8
B-XX-OG-BEBOUWING-GV
100
AcDbPolyline
 90
        7
 70
   129
 43
0.0
 10
209400.604
 20
437938.011
 10
209392.679
 20
437941.043
 10
209391.75
 20
437938.615
 10
209390.928
 20
437938.929
 10
209387.773
 20
437930.682
 10
209396.488
 20
437927.252
 10
209400.604
 20
437938.011
  0
LWPOLYLINE
  5
14C2
330
1556
100
AcDbEntity
  8
B-XX-OG-BEBOUWING-GV
100
AcDbPolyline
 90
        7
 70
   129
 43
0.0
 10
209624.118
 20
437687.376
 10
209614.187
 20
437692.586
 10
209610.012
 20
437684.96
 10
209600.841
 20
437690.0
 10
209590.009
 20
437669.545
 10
209608.938
 20
437659.307
 10
209624.118
 20
437687.376
  0
TEXT
  5
14C3
330
1556
100
AcDbEntity
  8
B-XX-OG-BEBOUWING-T18
100
AcDbText
 10
209125.698951
 20
437880.638264
 30
0.0
 40
1.8
  1
3A-5
 50
341.6
  7
NLCS-ISO-M-T18
 72
     1
 11
209128.545
 21
437880.64
 31
0.0
100
AcDbText
 73
     2
  0
LWPOLYLINE
  5
14C4
330
1556
100
AcDbEntity
  8
B-XX-OG-BEBOUWING-GV
100
AcDbPolyline
 90
       15
 70
   129
 43
0.0
 10
209146.293
 20
437875.192
 10
209148.123
 20
437881.005
 10
209138.566
 20
437884.014
 10
209137.547
 20
437880.781
 10
209134.314
 20
437881.799
 10
209127.045
 20
437884.088
 10
209124.894
 20
437877.638
 10
209132.235
 20
437875.198
 10
209131.113
 20
437871.808
 10
209141.135
 20
437868.498
 10
209143.894
 20
437867.596
 10
209144.009
 20
437867.937
 10
209145.548
 20
437867.453
 10
209147.889
 20
437874.646
 10
209146.293
 20
437875.192
  0
TEXT
  5
14C5
330
1556
100
AcDbEntity
  8
B-XX-OG-BEBOUWING-T18
100
AcDbText
 10
209373.962642
 20
437841.030446
 30
0.0
 40
1.8
  1
17
 50
335.9
  7
NLCS-ISO-M-T18
 72
     1
 11
209375.316
 21
437841.411
 31
0.0
100
AcDbText
 73
     2
  0
LWPOLYLINE
  5
14C6
330
1556
100
AcDbEntity
  8
B-XX-OG-BEBOUWING-GV
100
AcDbPolyline
 90
       11
 70
   129
 43
0.0
 10
209380.41
 20
437845.657
 10
209374.011
 20
437848.613
 10
209375.769
 20
437852.694
 10
209369.214
 20
437855.586
 10
209366.113
 20
437848.562
 10
209370.803
 20
437846.605
 10
209372.873
 20
437845.742
 10
209371.564
 20
437842.819
 10
209370.363
 20
437840.136
 10
209376.673
 20
437837.311
 10
209380.41
 20
437845.657
  0
LWPOLYLINE
  5
14C7
330
1556
100
AcDbEntity
  8
B-XX-OG-BEBOUWING-GV
100
AcDbPolyline
 90
        5
 70
   129
 43
0.0
 10
209380.784
 20
437903.213
 10
209384.364
 20
437901.322
 10
209385.673
 20
437903.8
 10
209382.096
 20
437905.689
 10
209380.784
 20
437903.213
  0
LWPOLYLINE
  5
14C8
330
1556
100
AcDbEntity
  8
B-XX-KG-GRENS_PERCEEL-GV
100
AcDbPolyline
 90
       11
 70
   129
 43
0.0
 10
209535.65
 20
437932.471
 10
209537.418
 20
437931.268
 10
209537.531
 20
437931.437
 10
209538.288
 20
437930.937
 10
209553.334
 20
437954.236
 10
209542.9
 20
437961.176
 10
209525.93
 20
437934.819
 10
209529.228
 20
437932.545
 10
209531.874
 20
437930.747
 10
209533.664
 20
437929.531
 10
209535.65
 20
437932.471
  0
TEXT
  5
14CB
330
1556
100
AcDbEntity
  8
0
100
AcDbText
 10
209540.035
 20
437950.375
 30
0.0
 40
1.8
  1
692
 51
10.0
  7
NLCS-ISO
 72
     1
 11
209541.925
 21
437951.275
 31
0.0
100
AcDbText
 73
     2
  0
LWPOLYLINE
  5
14CC
330
1556
100
AcDbEntity
  8
B-XX-KG-GRENS_PERCEEL-GV
100
AcDbPolyline
 90
        7
 70
   129
 43
0.0
 10
209567.269
 20
437944.968
 10
209561.777
 20
437948.62
 10
209546.884
 20
437925.131
 10
209547.472
 20
437924.736
 10
209552.235
 20
437921.54
 10
209559.922
 20
437933.401
 10
209567.269
 20
437944.968
  0
TEXT
  5
14CD
330
1556
100
AcDbEntity
  8
0
100
AcDbText
 10
209554.924
 20
437934.201
 30
0.0
 40
1.8
  1
1351
 51
10.0
  7
NLCS-ISO
 72
     1
 11
209557.084
 21
437935.101
 31
0.0
100
AcDbText
 73
     2
  0
LWPOLYLINE
  5
14CE
330
1556
100
AcDbEntity
  8
B-XX-KG-GRENS_PERCEEL-GV
100
AcDbPolyline
 90
       22
 70
   129
 43
0.0
 10
209567.269
 20
437944.968
 10
209559.922
 20
437933.401
 10
209552.235
 20
437921.54
 10
209561.803
 20
437915.12
 10
209550.691
 20
437896.607
 10
209538.734
 20
437876.669
 10
209529.54
 20
437882.857
 10
209521.908
 20
437862.743
 10
209519.651
 20
437856.829
 10
209520.085
 20
437856.552
 10
209515.733
 20
437845.374
 10
209512.291
 20
437836.23
 10
209501.051
 20
437806.882
 10
209413.49
 20
437837.807
 10
209498.515
 20
437799.896
 10
209566.345
 20
437769.911
 10
209584.078
 20
437800.938
 10
209599.42
 20
437827.779
 10
209601.396
 20
437831.293
 10
209638.649
 20
437897.549
 10
209584.814
 20
437933.3
 10
209567.269
 20
437944.968
  0
TEXT
  5
14CF
330
1556
100
AcDbEntity
  8
0
100
AcDbText
 10
209562.24
 20
437852.284
 30
0.0
 40
1.8
  1
1350
 51
10.0
  7
NLCS-ISO
 72
     1
 11
209564.58
 21
437853.184
 31
0.0
100
AcDbText
 73
     2
  0
LWPOLYLINE
  5
14D0
330
1556
100
AcDbEntity
  8
B-XX-KG-GRENS_PERCEEL-GV
100
AcDbPolyline
 90
       10
 70
   129
 43
0.0
 10
209276.111
 20
437764.184
 10
209289.578
 20
437802.191
 10
209227.547
 20
437816.922
 10
209219.697
 20
437818.097
 10
209220.473
 20
437821.839
 10
209225.435
 20
437820.715
 10
209229.954
 20
437836.899
 10
209204.113
 20
437844.915
 10
209189.986
 20
437786.62
 10
209276.111
 20
437764.184
  0
TEXT
  5
14D1
330
1556
100
AcDbEntity
  8
0
100
AcDbText
 10
209241.283
 20
437798.375
 30
0.0
 40
1.8
  1
1188
 51
10.0
  7
NLCS-ISO
 72
     1
 11
209243.443
 21
437799.275
 31
0.0
100
AcDbText
 73
     2
  0
LWPOLYLINE
  5
14D2
330
1556
100
AcDbEntity
  8
B-XX-KG-GRENS_PERCEEL-GV
100
AcDbPolyline
 90
        6
 70
   129
 43
0.0
 10
209415.524
 20
437914.832
 10
209395.509
 20
437922.744
 10
209380.309
 20
437896.211
 10
209386.332
 20
437893.665
 10
209406.992
 20
437884.933
 10
209415.524
 20
437914.832
  0
TEXT
  5
14D3
330
1556
100
AcDbEntity
  8
0
100
AcDbText
 10
209397.586
 20
437902.626
 30
0.0
 40
1.8
  1
1310
 51
10.0
  7
NLCS-ISO
 72
     1
 11
209399.746
 21
437903.526
 31
0.0
100
AcDbText
 73
     2
  0
TEXT
  5
14D4
330
1556
100
AcDbEntity
  8
0
100
AcDbText
 10
209208.688
 20
437696.29
 30
0.0
 40
1.8
  1
1189
 51
10.0
  7
NLCS-ISO
 72
     1
 11
209210.848
 21
437697.19
 31
0.0
100
AcDbText
 73
     2
  0
TEXT
  5
14D5
330
1556
100
AcDbEntity
  8
0
100
AcDbText
 10
209126.044
 20
437888.03
 30
0.0
 40
1.8
  1
1014
 51
10.0
  7
NLCS-ISO
 72
     1
 11
209128.294
 21
437888.93
 31
0.0
100
AcDbText
 73
     2
  0
LWPOLYLINE
  5
14D6
330
1556
100
AcDbEntity
  8
B-XX-KG-GRENS_PERCEEL-GV
100
AcDbPolyline
 90
        5
 70
   129
 43
0.0
 10
209377.009
 20
437953.115
 10
209369.081
 20
437933.191
 10
209391.333
 20
437924.395
 10
209399.138
 20
437944.323
 10
209377.009
 20
437953.115
  0
TEXT
  5
14D7
330
1556
100
AcDbEntity
  8
0
100
AcDbText
 10
209380.271
 20
437940.779
 30
0.0
 40
1.8
  1
1307
 51
10.0
  7
NLCS-ISO
 72
     1
 11
209382.611
 21
437941.679
 31
0.0
100
AcDbText
 73
     2
  0
LWPOLYLINE
  5
14D8
330
1556
100
AcDbEntity
  8
B-XX-KG-GRENS_PERCEEL-GV
100
AcDbPolyline
 90
        7
 70
   129
 43
0.0
 10
209392.066
 20
437924.105
 10
209377.828
 20
437897.26
 10
209380.309
 20
437896.211
 10
209395.509
 20
437922.744
 10
209394.871
 20
437922.996
 10
209394.772
 20
437923.035
 10
209392.066
 20
437924.105
  0
TEXT
  5
14D9
330
1556
100
AcDbEntity
  8
0
100
AcDbText
 10
209389.699
 20
437918.759
 30
0.0
 40
1.8
  1
1523
 51
10.0
  7
NLCS-ISO
 72
     1
 11
209392.039
 21
437919.659
 31
0.0
100
AcDbText
 73
     2
  0
LWPOLYLINE
  5
14DA
330
1556
100
AcDbEntity
  8
B-XX-KG-GRENS_PERCEEL-GV
100
AcDbPolyline
 90
        8
 70
   129
 43
0.0
 10
209394.772
 20
437923.035
 10
209394.871
 20
437922.996
 10
209395.509
 20
437922.744
 10
209415.524
 20
437914.832
 10
209421.414
 20
437935.473
 10
209402.721
 20
437942.899
 10
209402.608
 20
437942.944
 10
209394.772
 20
437923.035
  0
TEXT
  5
14DB
330
1556
100
AcDbEntity
  8
0
100
AcDbText
 10
209411.272
 20
437927.138
 30
0.0
 40
1.8
  1
1527
 51
10.0
  7
NLCS-ISO
 72
     1
 11
209413.612
 21
437928.038
 31
0.0
100
AcDbText
 73
     2
  0
LWPOLYLINE
  5
14DC
330
1556
100
AcDbEntity
  8
B-XX-KG-GRENS_PERCEEL-GV
100
AcDbPolyline
 90
        8
 70
   129
 43
0.0
 10
209390.445
 20
437826.838
 10
209393.444
 20
437825.696
 10
209398.711
 20
437843.894
 10
209395.642
 20
437845.161
 10
209370.935
 20
437855.299
 10
209363.796
 20
437837.755
 10
209378.949
 20
437831.311
 10
209390.445
 20
437826.838
  0
TEXT
  5
14DD
330
1556
100
AcDbEntity
  8
0
100
AcDbText
 10
209386.063
 20
437837.7
 30
0.0
 40
1.8
  1
99
 51
10.0
  7
NLCS-ISO
 72
     1
 11
209387.323
 21
437838.6
 31
0.0
100
AcDbText
 73
     2
  0
LWPOLYLINE
  5
14DE
330
1556
100
AcDbEntity
  8
B-XX-KG-GRENS_PERCEEL-GV
100
AcDbPolyline
 90
        7
 70
   129
 43
0.0
 10
209363.796
 20
437837.755
 10
209370.935
 20
437855.299
 10
209395.642
 20
437845.161
 10
209396.292
 20
437847.438
 10
209325.265
 20
437876.815
 10
209318.869
 20
437858.535
 10
209363.796
 20
437837.755
  0
TEXT
  5
14DF
330
1556
100
AcDbEntity
  8
0
100
AcDbText
 10
209346.838
 20
437854.916
 30
0.0
 40
1.8
  1
100
 51
10.0
  7
NLCS-ISO
 72
     1
 11
209348.548
 21
437855.816
 31
0.0
100
AcDbText
 73
     2
  0
LWPOLYLINE
  5
14E0
330
1556
100
AcDbEntity
  8
B-XX-KG-GRENS_PERCEEL-GV
100
AcDbPolyline
 90
       16
 70
   129
 43
0.0
 10
209381.455
 20
437798.782
 10
209388.927
 20
437822.099
 10
209390.445
 20
437826.838
 10
209378.949
 20
437831.311
 10
209363.796
 20
437837.755
 10
209318.869
 20
437858.535
 10
209315.887
 20
437850.014
 10
209315.2
 20
437849.429
 10
209313.847
 20
437848.238
 10
209313.227
 20
437847.202
 10
209310.946
 20
437843.742
 10
209309.959
 20
437840.908
 10
209308.151
 20
437835.087
 10
209307.345
 20
437832.147
 10
209334.836
 20
437819.767
 10
209381.455
 20
437798.782
  0
TEXT
  5
14E1
330
1556
100
AcDbEntity
  8
0
100
AcDbText
 10
209353.913
 20
437823.371
 30
0.0
 40
1.8
  1
781
 51
10.0
  7
NLCS-ISO
 72
     1
 11
209355.623
 21
437824.271
 31
0.0
100
AcDbText
 73
     2
  0
LWPOLYLINE
  5
14E2
330
1556
100
AcDbEntity
  8
B-XX-KG-GRENS_PERCEEL-GV
100
AcDbPolyline
 90
       11
 70
   129
 43
0.0
 10
209368.742
 20
437957.004
 10
209377.147
 20
437953.461
 10
209377.009
 20
437953.115
 10
209399.138
 20
437944.323
 10
209402.608
 20
437942.944
 10
209402.721
 20
437942.899
 10
209421.414
 20
437935.473
 10
209422.808
 20
437940.358
 10
209375.469
 20
437960.321
 10
209370.641
 20
437962.357
 10
209368.742
 20
437957.004
  0
TEXT
  5
14E3
330
1556
100
AcDbEntity
  8
0
100
AcDbText
 10
209392.885
 20
437946.92
 30
0.0
 40
1.8
  1
1603
 51
10.0
  7
NLCS-ISO
 72
     1
 11
209395.225
 21
437947.82
 31
0.0
100
AcDbText
 73
     2
  0
LWPOLYLINE
  5
14E4
330
1556
100
AcDbEntity
  8
B-XX-KG-GRENS_PERCEEL-GV
100
AcDbPolyline
 90
       25
 70
   129
 43
0.0
 10
209304.677
 20
437832.083
 10
209304.315
 20
437830.873
 10
209300.593
 20
437818.459
 10
209299.467
 20
437814.608
 10
209297.641
 20
437809.187
 10
209297.066
 20
437807.478
 10
209294.212
 20
437805.138
 10
209225.435
 20
437820.715
 10
209220.473
 20
437821.839
 10
209219.697
 20
437818.097
 10
209227.547
 20
437816.922
 10
209289.578
 20
437802.191
 10
209298.796
 20
437800.003
 10
209305.337
 20
437821.007
 10
209305.481
 20
437821.893
 10
209307.299
 20
437824.048
 10
209309.702
 20
437825.116
 10
209312.97
 20
437824.163
 10
209344.336
 20
437809.544
 10
209379.76
 20
437793.491
 10
209381.455
 20
437798.782
 10
209334.836
 20
437819.767
 10
209307.345
 20
437832.147
 10
209304.808
 20
437832.519
 10
209304.677
 20
437832.083
  0
TEXT
  5
14E5
330
1556
100
AcDbEntity
  8
0
100
AcDbText
 10
209253.645
 20
437811.105
 30
0.0
 40
1.8
  1
779
 51
10.0
  7
NLCS-ISO
 72
     1
 11
209255.535
 21
437812.005
 31
0.0
100
AcDbText
 73
     2
  0
LWPOLYLINE
  5
14E6
330
1556
100
AcDbEntity
  8
B-XX-KG-GRENS_PERCEEL-GV
100
AcDbPolyline
 90
        9
 70
   129
 43
0.0
 10
209358.526
 20
437989.152
 10
209345.616
 20
437995.082
 10
209340.296
 20
437983.379
 10
209334.811
 20
437971.305
 10
209354.937
 20
437962.824
 10
209368.742
 20
437957.004
 10
209370.641
 20
437962.357
 10
209351.098
 20
437970.598
 10
209358.526
 20
437989.152
  0
TEXT
  5
14E7
330
1556
100
AcDbEntity
  8
0
100
AcDbText
 10
209343.756
 20
437976.97
 30
0.0
 40
1.8
  1
1602
 51
10.0
  7
NLCS-ISO
 72
     1
 11
209346.096
 21
437977.87
 31
0.0
100
AcDbText
 73
     2
  0
LWPOLYLINE
  5
14E8
330
1556
100
AcDbEntity
  8
B-XX-KG-GRENS_PERCEEL-GV
100
AcDbPolyline
 90
        6
 70
   129
 43
0.0
 10
209391.333
 20
437924.395
 10
209392.066
 20
437924.105
 10
209394.772
 20
437923.035
 10
209402.608
 20
437942.944
 10
209399.138
 20
437944.323
 10
209391.333
 20
437924.395
  0
TEXT
  5
14E9
330
1556
100
AcDbEntity
  8
0
100
AcDbText
 10
209392.258
 20
437925.071
 30
0.0
 40
1.8
  1
1526
 51
10.0
  7
NLCS-ISO
 72
     1
 11
209394.598
 21
437925.971
 31
0.0
100
AcDbText
 73
     2
  0
LWPOLYLINE
  5
14EA
330
1556
100
AcDbEntity
  8
B-XX-KG-GRENS_PERCEEL-GV
100
AcDbPolyline
 90
        5
 70
   129
 43
0.0
 10
209213.584
 20
437881.456
 10
209129.752
 20
437909.675
 10
209124.148
 20
437895.577
 10
209210.02
 20
437869.015
 10
209213.584
 20
437881.456
  0
TEXT
  5
14EB
330
1556
100
AcDbEntity
  8
0
100
AcDbText
 10
209164.954
 20
437888.651
 30
0.0
 40
1.8
  1
1311
 51
10.0
  7
NLCS-ISO
 72
     1
 11
209166.934
 21
437889.551
 31
0.0
100
AcDbText
 73
     2
  0
LWPOLYLINE
  5
14EC
330
1556
100
AcDbEntity
  8
B-XX-KG-GRENS_PERCEEL-GV
100
AcDbPolyline
 90
       14
 70
   129
 43
0.0
 10
209519.651
 20
437856.829
 10
209521.908
 20
437862.743
 10
209529.54
 20
437882.857
 10
209510.11
 20
437895.933
 10
209507.015
 20
437891.463
 10
209504.305
 20
437887.821
 10
209436.873
 20
437921.276
 10
209426.789
 20
437886.702
 10
209413.49
 20
437837.807
 10
209501.051
 20
437806.882
 10
209512.291
 20
437836.23
 10
209515.733
 20
437845.374
 10
209520.085
 20
437856.552
 10
209519.651
 20
437856.829
  0
TEXT
  5
14ED
330
1556
100
AcDbEntity
  8
0
100
AcDbText
 10
209467.009
 20
437864.526
 30
0.0
 40
1.8
  1
1365
 51
10.0
  7
NLCS-ISO
 72
     1
 11
209469.349
 21
437865.426
 31
0.0
100
AcDbText
 73
     2
  0
LWPOLYLINE
  5
14EE
330
1556
100
AcDbEntity
  8
B-XX-KG-GRENS_PERCEEL-GV
100
AcDbPolyline
 90
       10
 70
   129
 43
0.0
 10
209281.405
 20
437842.933
 10
209281.344
 20
437842.659
 10
209281.129
 20
437841.682
 10
209274.956
 20
437813.591
 10
209297.641
 20
437809.187
 10
209299.467
 20
437814.608
 10
209300.593
 20
437818.459
 10
209304.315
 20
437830.873
 10
209304.677
 20
437832.083
 10
209281.405
 20
437842.933
  0
TEXT
  5
14EF
330
1556
100
AcDbEntity
  8
0
100
AcDbText
 10
209279.545
 20
437819.441
 30
0.0
 40
1.8
  1
1637
 51
10.0
  7
NLCS-ISO
 72
     1
 11
209281.885
 21
437820.341
 31
0.0
100
AcDbText
 73
     2
  0
LWPOLYLINE
  5
14F0
330
1556
100
AcDbEntity
  8
B-XX-KG-GRENS_PERCEEL-GV
100
AcDbPolyline
 90
       17
 70
   129
 43
0.0
 10
209336.419
 20
437764.917
 10
209334.29
 20
437765.95
 10
209333.797
 20
437766.169
 10
209320.572
 20
437742.559
 10
209329.212
 20
437738.001
 10
209320.306
 20
437721.33
 10
209319.978
 20
437720.713
 10
209312.27
 20
437706.208
 10
209313.351
 20
437704.312
 10
209320.648
 20
437700.357
 10
209334.216
 20
437697.032
 10
209335.947
 20
437698.312
 10
209351.503
 20
437724.561
 10
209352.263
 20
437731.324
 10
209363.579
 20
437751.033
 10
209363.829
 20
437751.616
 10
209336.419
 20
437764.917
  0
TEXT
  5
14F1
330
1556
100
AcDbEntity
  8
0
100
AcDbText
 10
209345.697
 20
437742.139
 30
0.0
 40
1.8
  1
1191
 51
10.0
  7
NLCS-ISO
 72
     1
 11
209347.677
 21
437743.039
 31
0.0
100
AcDbText
 73
     2
  0
LWPOLYLINE
  5
14F2
330
1556
100
AcDbEntity
  8
B-XX-KG-GRENS_PERCEEL-GV
100
AcDbPolyline
 90
        8
 70
   129
 43
0.0
 10
209377.794
 20
437787.357
 10
209346.632
 20
437796.049
 10
209336.419
 20
437764.917
 10
209363.829
 20
437751.616
 10
209370.733
 20
437767.726
 10
209373.008
 20
437766.637
 10
209380.085
 20
437786.687
 10
209377.794
 20
437787.357
  0
TEXT
  5
14F3
330
1556
100
AcDbEntity
  8
0
100
AcDbText
 10
209353.864
 20
437768.032
 30
0.0
 40
1.8
  1
94
 51
10.0
  7
NLCS-ISO
 72
     1
 11
209355.214
 21
437768.932
 31
0.0
100
AcDbText
 73
     2
  0
LWPOLYLINE
  5
14F4
330
1556
100
AcDbEntity
  8
B-XX-KG-GRENS_PERCEEL-GV
100
AcDbPolyline
 90
       20
 70
   129
 43
0.0
 10
209541.026
 20
437929.061
 10
209538.288
 20
437930.937
 10
209537.531
 20
437931.437
 10
209537.418
 20
437931.268
 10
209535.65
 20
437932.471
 10
209533.664
 20
437929.531
 10
209531.874
 20
437930.747
 10
209531.117
 20
437929.538
 10
209527.898
 20
437931.853
 10
209505.767
 20
437898.859
 10
209509.955
 20
437896.037
 10
209510.11
 20
437895.933
 10
209529.54
 20
437882.857
 10
209538.734
 20
437876.669
 10
209550.691
 20
437896.607
 10
209561.803
 20
437915.12
 10
209552.235
 20
437921.54
 10
209547.472
 20
437924.736
 10
209546.884
 20
437925.131
 10
209541.026
 20
437929.061
  0
TEXT
  5
14F5
330
1556
100
AcDbEntity
  8
0
100
AcDbText
 10
209527.992
 20
437903.682
 30
0.0
 40
1.8
  1
1048
 51
10.0
  7
NLCS-ISO
 72
     1
 11
209530.422
 21
437904.582
 31
0.0
100
AcDbText
 73
     2
  0
LWPOLYLINE
  5
14F6
330
1556
100
AcDbEntity
  8
B-XX-KG-GRENS_PERCEEL-GV
100
AcDbPolyline
 90
       16
 70
   129
 43
0.0
 10
209377.794
 20
437787.357
 10
209379.76
 20
437793.491
 10
209344.336
 20
437809.544
 10
209312.97
 20
437824.163
 10
209309.702
 20
437825.116
 10
209307.299
 20
437824.048
 10
209305.481
 20
437821.893
 10
209305.337
 20
437821.007
 10
209298.796
 20
437800.003
 10
209294.729
 20
437787.16
 10
209293.658
 20
437783.996
 10
209333.797
 20
437766.169
 10
209334.29
 20
437765.95
 10
209336.419
 20
437764.917
 10
209346.632
 20
437796.049
 10
209377.794
 20
437787.357
  0
TEXT
  5
14F7
330
1556
100
AcDbEntity
  8
0
100
AcDbText
 10
209321.497
 20
437796.365
 30
0.0
 40
1.8
  1
95
 51
10.0
  7
NLCS-ISO
 72
     1
 11
209322.757
 21
437797.265
 31
0.0
100
AcDbText
 73
     2
  0
LWPOLYLINE
  5
14F8
330
1556
100
AcDbEntity
  8
B-XX-KG-GRENS_PERCEEL-GV
100
AcDbPolyline
 90
        6
 70
   129
 43
0.0
 10
209328.641
 20
437886.076
 10
209325.265
 20
437876.815
 10
209396.292
 20
437847.438
 10
209398.976
 20
437856.843
 10
209360.482
 20
437872.817
 10
209328.641
 20
437886.076
  0
TEXT
  5
14F9
330
1556
100
AcDbEntity
  8
0
100
AcDbText
 10
209361.707
 20
437865.065
 30
0.0
 40
1.8
  1
1231
 51
10.0
  7
NLCS-ISO
 72
     1
 11
209363.867
 21
437865.965
 31
0.0
100
AcDbText
 73
     2
  0
TEXT
  5
14FA
330
1556
100
AcDbEntity
  8
0
100
AcDbText
 10
209480.14
 20
437684.807
 30
0.0
 40
1.8
  1
1051
 51
10.0
  7
NLCS-ISO
 72
     1
 11
209482.3
 21
437685.707
 31
0.0
100
AcDbText
 73
     2
  0
TEXT
  5
14FB
330
1556
100
AcDbEntity
  8
0
100
AcDbText
 10
209617.339
 20
437757.765
 30
0.0
 40
1.8
  1
1050
 51
10.0
  7
NLCS-ISO
 72
     1
 11
209619.679
 21
437758.665
 31
0.0
100
AcDbText
 73
     2
  0
LWPOLYLINE
  5
14FC
330
1556
100
AcDbEntity
  8
B-XX-KG-GRENS_PERCEEL-GV
100
AcDbPolyline
 90
       11
 70
   129
 43
0.0
 10
209428.354
 20
437959.791
 10
209431.841
 20
437958.507
 10
209434.86
 20
437968.834
 10
209423.804
 20
437972.725
 10
209423.861
 20
437972.845
 10
209417.993
 20
437975.055
 10
209418.021
 20
437975.092
 10
209405.631
 20
437979.456
 10
209405.304
 20
437974.278
 10
209405.044
 20
437968.862
 10
209428.354
 20
437959.791
  0
TEXT
  5
14FD
330
1556
100
AcDbEntity
  8
0
100
AcDbText
 10
209408.108
 20
437971.897
 30
0.0
 40
1.8
  1
1186
 51
10.0
  7
NLCS-ISO
 72
     1
 11
209410.268
 21
437972.797
 31
0.0
100
AcDbText
 73
     2
  0
LWPOLYLINE
  5
14FE
330
1556
100
AcDbEntity
  8
B-XX-KG-GRENS_PERCEEL-GV
100
AcDbPolyline
 90
        7
 70
   129
 43
0.0
 10
209369.081
 20
437933.191
 10
209366.978
 20
437927.905
 10
209358.098
 20
437905.601
 10
209377.828
 20
437897.26
 10
209392.066
 20
437924.105
 10
209391.333
 20
437924.395
 10
209369.081
 20
437933.191
  0
TEXT
  5
14FF
330
1556
100
AcDbEntity
  8
0
100
AcDbText
 10
209367.958
 20
437912.457
 30
0.0
 40
1.8
  1
1522
 51
10.0
  7
NLCS-ISO
 72
     1
 11
209370.298
 21
437913.357
 31
0.0
100
AcDbText
 73
     2
  0
LWPOLYLINE
  5
1500
330
1556
100
AcDbEntity
  8
B-XX-KG-GRENS_PERCEEL-GV
100
AcDbPolyline
 90
        7
 70
   129
 43
0.0
 10
209401.714
 20
437866.437
 10
209363.609
 20
437882.336
 10
209332.029
 20
437895.455
 10
209328.641
 20
437886.076
 10
209360.482
 20
437872.817
 10
209398.976
 20
437856.843
 10
209401.714
 20
437866.437
  0
TEXT
  5
1501
330
1556
100
AcDbEntity
  8
0
100
AcDbText
 10
209361.204
 20
437875.09
 30
0.0
 40
1.8
  1
1232
 51
10.0
  7
NLCS-ISO
 72
     1
 11
209363.544
 21
437875.99
 31
0.0
100
AcDbText
 73
     2
  0
LWPOLYLINE
  5
1502
330
1556
100
AcDbEntity
  8
B-XX-KG-GRENS_PERCEEL-GV
100
AcDbPolyline
 90
        9
 70
   129
 43
0.0
 10
209385.517
 20
437985.738
 10
209375.469
 20
437960.321
 10
209422.808
 20
437940.358
 10
209428.354
 20
437959.791
 10
209405.044
 20
437968.862
 10
209405.304
 20
437974.278
 10
209405.631
 20
437979.456
 10
209401.429
 20
437980.279
 10
209385.517
 20
437985.738
  0
TEXT
  5
1503
330
1556
100
AcDbEntity
  8
0
100
AcDbText
 10
209396.642
 20
437961.945
 30
0.0
 40
1.8
  1
1601
 51
10.0
  7
NLCS-ISO
 72
     1
 11
209398.802
 21
437962.845
 31
0.0
100
AcDbText
 73
     2
  0
LWPOLYLINE
  5
1504
330
1556
100
AcDbEntity
  8
B-XX-KG-GRENS_PERCEEL-GV
100
AcDbPolyline
 90
       14
 70
   129
 43
0.0
 10
209334.216
 20
437697.032
 10
209320.648
 20
437700.357
 10
209313.351
 20
437704.312
 10
209312.27
 20
437706.208
 10
209319.978
 20
437720.713
 10
209270.098
 20
437747.217
 10
209275.725
 20
437763.093
 10
209230.109
 20
437775.381
 10
209217.485
 20
437720.167
 10
209216.879
 20
437717.518
 10
209294.348
 20
437699.311
 10
209325.444
 20
437688.636
 10
209329.12
 20
437693.263
 10
209334.216
 20
437697.032
  0
TEXT
  5
1505
330
1556
100
AcDbEntity
  8
0
100
AcDbText
 10
209257.429
 20
437731.244
 30
0.0
 40
1.8
  1
1546
 51
10.0
  7
NLCS-ISO
 72
     1
 11
209259.859
 21
437732.144
 31
0.0
100
AcDbText
 73
     2
  0
LWPOLYLINE
  5
1506
330
1556
100
AcDbEntity
  8
B-XX-KG-GRENS_PERCEEL-GV
100
AcDbPolyline
 90
       13
 70
   129
 43
0.0
 10
209276.111
 20
437764.184
 10
209275.725
 20
437763.093
 10
209270.098
 20
437747.217
 10
209319.978
 20
437720.713
 10
209320.306
 20
437721.33
 10
209329.212
 20
437738.001
 10
209320.572
 20
437742.559
 10
209333.797
 20
437766.169
 10
209293.658
 20
437783.996
 10
209294.729
 20
437787.16
 10
209298.796
 20
437800.003
 10
209289.578
 20
437802.191
 10
209276.111
 20
437764.184
  0
TEXT
  5
1507
330
1556
100
AcDbEntity
  8
0
100
AcDbText
 10
209288.24
 20
437759.202
 30
0.0
 40
1.8
  1
1545
 51
10.0
  7
NLCS-ISO
 72
     1
 11
209290.67
 21
437760.102
 31
0.0
100
AcDbText
 73
     2
  0
TEXT
  5
1508
330
1556
100
AcDbEntity
  8
0
100
AcDbText
 10
209139.825
 20
437831.242
 30
0.0
 40
1.8
  1
1015
 51
10.0
  7
NLCS-ISO
 72
     1
 11
209141.985
 21
437832.142
 31
0.0
100
AcDbText
 73
     2
  0
LWPOLYLINE
  5
1509
330
1556
100
AcDbEntity
  8
B-XX-KG-GRENS_PERCEEL-GV
100
AcDbPolyline
 90
       28
 70
   129
 43
0.0
 10
209281.129
 20
437841.682
 10
209281.344
 20
437842.659
 10
209281.405
 20
437842.933
 10
209304.677
 20
437832.083
 10
209304.808
 20
437832.519
 10
209307.345
 20
437832.147
 10
209308.151
 20
437835.087
 10
209309.959
 20
437840.908
 10
209310.946
 20
437843.742
 10
209313.227
 20
437847.202
 10
209313.847
 20
437848.238
 10
209315.2
 20
437849.429
 10
209315.887
 20
437850.014
 10
209318.869
 20
437858.535
 10
209219.664
 20
437902.678
 10
209213.584
 20
437881.456
 10
209210.02
 20
437869.015
 10
209209.592
 20
437867.521
 10
209207.477
 20
437858.795
 10
209205.626
 20
437851.159
 10
209204.113
 20
437844.915
 10
209229.954
 20
437836.899
 10
209225.435
 20
437820.715
 10
209294.212
 20
437805.138
 10
209297.066
 20
437807.478
 10
209297.641
 20
437809.187
 10
209274.956
 20
437813.591
 10
209281.129
 20
437841.682
  0
TEXT
  5
150A
330
1556
100
AcDbEntity
  8
0
100
AcDbText
 10
209262.474
 20
437839.941
 30
0.0
 40
1.8
  1
1636
 51
10.0
  7
NLCS-ISO
 72
     1
 11
209264.814
 21
437840.841
 31
0.0
100
AcDbText
 73
     2
  0
TEXT
  5
150B
330
1556
100
AcDbEntity
  8
0
100
AcDbText
 10
209147.357
 20
437675.743
 30
0.0
 40
1.8
  1
90
 51
10.0
  7
NLCS-ISO
 72
     1
 11
209148.617
 21
437676.643
 31
0.0
100
AcDbText
 73
     2
  0
LWPOLYLINE
  5
150C
330
1556
100
AcDbEntity
  8
B-XX-KG-GRENS_PERCEEL-GV
100
AcDbPolyline
 90
        7
 70
   129
 43
0.0
 10
209560.477
 20
437949.485
 10
209553.334
 20
437954.236
 10
209538.288
 20
437930.937
 10
209541.026
 20
437929.061
 10
209546.884
 20
437925.131
 10
209561.777
 20
437948.62
 10
209560.477
 20
437949.485
  0
TEXT
  5
150D
330
1556
100
AcDbEntity
  8
0
100
AcDbText
 10
209547.701
 20
437938.781
 30
0.0
 40
1.8
  1
1352
 51
10.0
  7
NLCS-ISO
 72
     1
 11
209550.041
 21
437939.681
 31
0.0
100
AcDbText
 73
     2
  0
TEXT
  5
150E
330
1556
100
AcDbEntity
  8
0
100
AcDbText
 10
209441.565
 20
438013.505
 30
0.0
 40
1.8
  1
104
 51
10.0
  7
NLCS-ISO
 72
     1
 11
209443.365
 21
438014.405
 31
0.0
100
AcDbText
 73
     2
  0
LWPOLYLINE
  5
150F
330
1556
100
AcDbEntity
  8
B-XX-KG-GRENS_PERCEEL-GV
100
AcDbPolyline
 90
       13
 70
   129
 43
0.0
 10
209375.469
 20
437960.321
 10
209385.517
 20
437985.738
 10
209375.037
 20
437989.333
 10
209379.333
 20
438001.923
 10
209366.869
 20
438006.293
 10
209353.196
 20
438010.96
 10
209350.955
 20
438005.514
 10
209345.638
 20
437995.131
 10
209345.616
 20
437995.082
 10
209358.526
 20
437989.152
 10
209351.098
 20
437970.598
 10
209370.641
 20
437962.357
 10
209375.469
 20
437960.321
  0
TEXT
  5
1510
330
1556
100
AcDbEntity
  8
0
100
AcDbText
 10
209364.982
 20
437978.401
 30
0.0
 40
1.8
  1
1600
 51
10.0
  7
NLCS-ISO
 72
     1
 11
209367.322
 21
437979.301
 31
0.0
100
AcDbText
 73
     2
  0
TEXT
  5
1511
330
1556
100
AcDbEntity
  8
0
100
AcDbText
 10
209330.816
 20
437687.062
 30
0.0
 40
1.8
  1
93
 51
10.0
  7
NLCS-ISO
 72
     1
 11
209332.076
 21
437687.962
 31
0.0
100
AcDbText
 73
     2
  0
LWPOLYLINE
  5
1512
330
1556
100
AcDbEntity
  8
B-XX-KG-GRENS_PERCEEL-GV
100
AcDbPolyline
 90
       19
 70
   129
 43
0.0
 10
209531.874
 20
437930.747
 10
209529.228
 20
437932.545
 10
209525.93
 20
437934.819
 10
209542.9
 20
437961.176
 10
209513.645
 20
437980.776
 10
209464.457
 20
438013.862
 10
209464.412
 20
438012.84
 10
209452.737
 20
437974.965
 10
209452.305
 20
437973.664
 10
209443.589
 20
437944.305
 10
209436.873
 20
437921.276
 10
209504.305
 20
437887.821
 10
209507.015
 20
437891.463
 10
209510.11
 20
437895.933
 10
209509.955
 20
437896.037
 10
209505.767
 20
437898.859
 10
209527.898
 20
437931.853
 10
209531.117
 20
437929.538
 10
209531.874
 20
437930.747
  0
TEXT
  5
1513
330
1556
100
AcDbEntity
  8
0
100
AcDbText
 10
209476.821
 20
437947.251
 30
0.0
 40
1.8
  1
1364
 51
10.0
  7
NLCS-ISO
 72
     1
 11
209479.251
 21
437948.151
 31
0.0
100
AcDbText
 73
     2
  0
TEXT
  5
1514
330
1556
100
AcDbEntity
  8
0
100
AcDbText
 10
209177.215
 20
437947.668
 30
0.0
 40
1.8
  1
1312
 51
10.0
  7
NLCS-ISO
 72
     1
 11
209179.375
 21
437948.568
 31
0.0
100
AcDbText
 73
     2
  0
LWPOLYLINE
  5
1515
330
1556
100
AcDbEntity
  8
B-XX-KG-GRENS_PERCEEL-GV
100
AcDbPolyline
 90
       13
 70
   129
 43
0.0
 10
209405.631
 20
437979.456
 10
209418.021
 20
437975.092
 10
209417.993
 20
437975.055
 10
209423.861
 20
437972.845
 10
209423.804
 20
437972.725
 10
209434.86
 20
437968.834
 10
209438.439
 20
437981.078
 10
209435.975
 20
437982.063
 10
209379.333
 20
438001.923
 10
209375.037
 20
437989.333
 10
209385.517
 20
437985.738
 10
209401.429
 20
437980.279
 10
209405.631
 20
437979.456
  0
TEXT
  5
1516
330
1556
100
AcDbEntity
  8
0
100
AcDbText
 10
209408.163
 20
437983.083
 30
0.0
 40
1.8
  1
1209
 51
10.0
  7
NLCS-ISO
 72
     1
 11
209410.503
 21
437983.983
 31
0.0
100
AcDbText
 73
     2
  0
TEXT
  5
1517
330
1556
100
AcDbEntity
  8
0
100
AcDbText
 10
209318.796
 20
437931.821
 30
0.0
 40
1.8
  1
1281
 51
10.0
  7
NLCS-ISO
 72
     1
 11
209320.956
 21
437932.721
 31
0.0
100
AcDbText
 73
     2
  0
TEXT
  5
1518
330
1556
100
AcDbEntity
  8
0
100
AcDbText
 10
209386.085
 20
437768.115
 30
0.0
 40
1.8
  1
427
 51
10.0
  7
NLCS-ISO
 72
     1
 11
209388.065
 21
437769.015
 31
0.0
100
AcDbText
 73
     2
  0
ENDSEC
  0
SECTION
  2
OBJECTS
  0
DICTIONARY
  5
155B
330
0
100
AcDbDictionary
281
     1
  3
ACAD_COLOR
350
1597
  3
ACAD_GROUP
350
1584
  3
ACAD_LAYOUT
350
1568
  3
ACAD_MATERIAL
350
155D
  3
ACAD_MLEADERSTYLE
350
159A
  3
ACAD_MLINESTYLE
350
1585
  3
ACAD_PLOTSETTINGS
350
1586
  3
ACAD_PLOTSTYLENAME
350
155A
  3
ACAD_SCALELIST
350
1598
  3
ACAD_TABLESTYLE
350
1599
  3
ACAD_VISUALSTYLE
350
157E
  3
AcadDim
350
165D
  3
ACDB_RECOMPOSE_DATA
350
165F
  3
AcDbVariableDictionary
350
15C4
  0
DICTIONARY
  5
1571
330
1570
100
AcDbDictionary
280
     1
281
     1
  3
ACAD_LAYERSTATES
360
1572
  0
DICTIONARY
  5
1597
102
{ACAD_REACTORS
330
155B
102
}
330
155B
100
AcDbDictionary
281
     1
  0
DICTIONARY
  5
1584
102
{ACAD_REACTORS
330
155B
102
}
330
155B
100
AcDbDictionary
281
     1
  0
DICTIONARY
  5
1568
102
{ACAD_REACTORS
330
155B
102
}
330
155B
100
AcDbDictionary
281
     1
  3
Layout1
350
156C
  3
Model
350
1567
  0
DICTIONARY
  5
155D
102
{ACAD_REACTORS
330
155B
102
}
330
155B
100
AcDbDictionary
281
     1
  3
ByBlock
350
158F
  3
ByLayer
350
1587
  3
Global
350
155C
  0
DICTIONARY
  5
159A
102
{ACAD_REACTORS
330
155B
102
}
330
155B
100
AcDbDictionary
281
     1
  3
Standard
350
15E8
  0
DICTIONARY
  5
1585
102
{ACAD_REACTORS
330
155B
102
}
330
155B
100
AcDbDictionary
281
     1
  3
Standard
350
159B
  0
DICTIONARY
  5
1586
102
{ACAD_REACTORS
330
155B
102
}
330
155B
100
AcDbDictionary
281
     1
  0
ACDBDICTIONARYWDFLT
  5
155A
102
{ACAD_REACTORS
330
155B
102
}
330
155B
100
AcDbDictionary
281
     1
  3
Normal
350
1559
100
AcDbDictionaryWithDefault
340
1559
  0
DICTIONARY
  5
1598
102
{ACAD_REACTORS
330
155B
102
}
330
155B
100
AcDbDictionary
281
     1
  3
A0
350
159F
  3
A1
350
15A0
  3
A2
350
15A1
  3
A3
350
15A2
  3
A4
350
15A3
  3
A5
350
15A4
  3
A6
350
15A5
  3
A7
350
15A6
  3
A8
350
15A7
  3
A9
350
15A8
  3
B0
350
15A9
  3
B1
350
15AA
  3
B2
350
15AB
  3
B3
350
15AC
  3
B4
350
15AD
  3
B5
350
15AE
  3
B6
350
15AF
  3
B7
350
15B0
  3
B8
350
15B1
  3
B9
350
15B2
  3
C0
350
15B3
  3
C1
350
15B4
  3
C2
350
15B5
  3
C3
350
15B6
  3
C4
350
15B7
  3
C5
350
15B8
  3
C6
350
15B9
  3
C7
350
15BA
  3
C8
350
15BB
  3
C9
350
15BC
  3
D0
350
15BD
  3
D1
350
15BE
  3
D2
350
15BF
  0
DICTIONARY
  5
1599
102
{ACAD_REACTORS
330
155B
102
}
330
155B
100
AcDbDictionary
281
     1
  3
Standard
350
159C
  0
DICTIONARY
  5
157E
102
{ACAD_REACTORS
330
155B
102
}
330
155B
100
AcDbDictionary
281
     1
  3
2dWireframe
350
157D
  3
3D Hidden
350
15DD
  3
3dWireframe
350
159E
  3
Basic
350
15DC
  3
Brighten
350
15E0
  3
ColorChange
350
15E4
  3
Conceptual
350
15DE
  3
Dim
350
15DF
  3
EdgeColorOff
350
15E7
  3
Facepattern
350
15E3
  3
Flat
350
15D8
  3
FlatWithEdges
350
15D9
  3
Gouraud
350
15DA
  3
GouraudWithEdges
350
15DB
  3
JitterOff
350
15E5
  3
Linepattern
350
15E2
  3
OverhangOff
350
15E6
  3
Realistic
350
159D
  3
Thicken
350
15E1
  0
XRECORD
  5
165D
102
{ACAD_REACTORS
330
155B
102
}
330
155B
100
AcDbXrecord
280
     1
 90
   990106
  3
 
 60
     0
 61
     0
 62
     2
 63
     2
 64
     0
 65
     0
 66
     0
 67
     3
 68
     1
 69
     0
 70
     0
 71
     0
 72
     0
 40
0.0
170
     0
  0
XRECORD
  5
165F
102
{ACAD_REACTORS
330
155B
102
}
330
155B
100
AcDbXrecord
280
     1
 90
        1
330
159C
  0
DICTIONARY
  5
15C4
102
{ACAD_REACTORS
330
155B
102
}
330
155B
100
AcDbDictionary
281
     1
  3
CANNOSCALE
350
15C8
  3
CMLEADERSTYLE
350
15C6
  3
CTABLESTYLE
350
15C5
  3
LAYEREVAL
350
15CA
  3
LAYERNOTIFY
350
15CB
  3
LIGHTINGUNITS
350
15C9
  3
MSLTSCALE
350
15C7
  0
DICTIONARY
  5
1572
102
{ACAD_REACTORS
330
1571
102
}
330
1571
100
AcDbDictionary
281
     1
  0
LAYOUT
  5
156C
102
{ACAD_XDICTIONARY
360
156D
102
}
102
{ACAD_REACTORS
330
1568
102
}
330
1568
100
AcDbPlotSettings
  1

  2
none_device
  4
Letter_(8.50_x_11.00_Inches)
  6

 40
6.35
 41
6.35
 42
6.350006
 43
6.350006
 44
215.899994
 45
279.399994
 46
0.0
 47
0.0
 48
0.0
 49
0.0
140
0.0
141
0.0
142
1.0
143
1.0
 70
   688
 72
     0
 73
     1
 74
     5
  7

 75
    16
147
1.0
 76
     0
 77
     2
 78
   300
148
0.0
149
0.0
100
AcDbLayout
  1
Layout1
 70
     1
 71
     1
 10
-0.25
 20
-0.25
 11
10.75
 21
8.25
 12
0.0
 22
0.0
 32
0.0
 14
1.049744
 24
0.799667
 34
-0.001526
 15
9.450623
 25
7.200577
 35
0.0
146
0.0
 13
0.0
 23
0.0
 33
0.0
 16
1.0
 26
0.0
 36
0.0
 17
0.0
 27
1.0
 37
0.0
 76
     0
330
1569
1001
ACAD_PSEXT
1000
None
1000
None
1000
Not applicable
1000
The layout will not be plotted unless a new plotter configuration name is selected.
1070
     0
  0
LAYOUT
  5
1567
102
{ACAD_REACTORS
330
1568
102
}
330
1568
100
AcDbPlotSettings
  1

  2
none_device
  4
ANSI_A_(8.50_x_11.00_Inches)
  6

 40
6.35
 41
19.049999
 42
6.350006
 43
19.049988
 44
215.899994
 45
279.399994
 46
0.0
 47
0.0
 48
0.0
 49
0.0
140
0.0
141
0.0
142
1.0
143
2.584895
 70
 11952
 72
     0
 73
     1
 74
     0
  7

 75
     0
147
0.386863
 76
     0
 77
     2
 78
   300
148
0.0
149
0.0
100
AcDbLayout
  1
Model
 70
     1
 71
     0
 10
0.0
 20
0.0
 11
12.0
 21
9.0
 12
0.0
 22
0.0
 32
0.0
 14
0.0
 24
0.0
 34
0.0
 15
0.0
 25
0.0
 35
0.0
146
0.0
 13
0.0
 23
0.0
 33
0.0
 16
1.0
 26
0.0
 36
0.0
 17
0.0
 27
1.0
 37
0.0
 76
     0
330
1556
  0
MATERIAL
  5
158F
102
{ACAD_XDICTIONARY
360
1590
102
}
102
{ACAD_REACTORS
330
155D
102
}
330
155D
100
AcDbMaterial
  1
ByBlock
 72
     0
 43
0.020833
 43
0.0
 43
0.0
 43
0.0
 43
0.0
 43
0.020833
 43
0.0
 43
0.0
 43
0.0
 43
0.0
 43
1.0
 43
0.0
 43
0.0
 43
0.0
 43
0.0
 43
1.0
 77
     0
 47
0.020833
 47
0.0
 47
0.0
 47
0.0
 47
0.0
 47
0.020833
 47
0.0
 47
0.0
 47
0.0
 47
0.0
 47
1.0
 47
0.0
 47
0.0
 47
0.0
 47
0.0
 47
1.0
171
     0
 49
0.020833
 49
0.0
 49
0.0
 49
0.0
 49
0.0
 49
0.020833
 49
0.0
 49
0.0
 49
0.0
 49
0.0
 49
1.0
 49
0.0
 49
0.0
 49
0.0
 49
0.0
 49
1.0
175
     0
142
0.020833
142
0.0
142
0.0
142
0.0
142
0.0
142
0.020833
142
0.0
142
0.0
142
0.0
142
0.0
142
1.0
142
0.0
142
0.0
142
0.0
142
0.0
142
1.0
179
     0
144
0.020833
144
0.0
144
0.0
144
0.0
144
0.0
144
0.020833
144
0.0
144
0.0
144
0.0
144
0.0
144
1.0
144
0.0
144
0.0
144
0.0
144
0.0
144
1.0
147
0.020833
147
0.0
147
0.0
147
0.0
147
0.0
147
0.020833
147
0.0
147
0.0
147
0.0
147
0.0
147
1.0
147
0.0
147
0.0
147
0.0
147
0.0
147
1.0
  0
MATERIAL
  5
1587
102
{ACAD_XDICTIONARY
360
1588
102
}
102
{ACAD_REACTORS
330
155D
102
}
330
155D
100
AcDbMaterial
  1
ByLayer
 72
     0
 43
0.020833
 43
0.0
 43
0.0
 43
0.0
 43
0.0
 43
0.020833
 43
0.0
 43
0.0
 43
0.0
 43
0.0
 43
1.0
 43
0.0
 43
0.0
 43
0.0
 43
0.0
 43
1.0
 77
     0
 47
0.020833
 47
0.0
 47
0.0
 47
0.0
 47
0.0
 47
0.020833
 47
0.0
 47
0.0
 47
0.0
 47
0.0
 47
1.0
 47
0.0
 47
0.0
 47
0.0
 47
0.0
 47
1.0
171
     0
 49
0.020833
 49
0.0
 49
0.0
 49
0.0
 49
0.0
 49
0.020833
 49
0.0
 49
0.0
 49
0.0
 49
0.0
 49
1.0
 49
0.0
 49
0.0
 49
0.0
 49
0.0
 49
1.0
175
     0
142
0.020833
142
0.0
142
0.0
142
0.0
142
0.0
142
0.020833
142
0.0
142
0.0
142
0.0
142
0.0
142
1.0
142
0.0
142
0.0
142
0.0
142
0.0
142
1.0
179
     0
144
0.020833
144
0.0
144
0.0
144
0.0
144
0.0
144
0.020833
144
0.0
144
0.0
144
0.0
144
0.0
144
1.0
144
0.0
144
0.0
144
0.0
144
0.0
144
1.0
147
0.020833
147
0.0
147
0.0
147
0.0
147
0.0
147
0.020833
147
0.0
147
0.0
147
0.0
147
0.0
147
1.0
147
0.0
147
0.0
147
0.0
147
0.0
147
1.0
  0
MATERIAL
  5
155C
102
{ACAD_XDICTIONARY
360
155E
102
}
102
{ACAD_REACTORS
330
155D
102
}
330
155D
100
AcDbMaterial
  1
Global
 72
     0
 43
0.020833
 43
0.0
 43
0.0
 43
0.0
 43
0.0
 43
0.020833
 43
0.0
 43
0.0
 43
0.0
 43
0.0
 43
1.0
 43
0.0
 43
0.0
 43
0.0
 43
0.0
 43
1.0
 77
     0
 47
0.020833
 47
0.0
 47
0.0
 47
0.0
 47
0.0
 47
0.020833
 47
0.0
 47
0.0
 47
0.0
 47
0.0
 47
1.0
 47
0.0
 47
0.0
 47
0.0
 47
0.0
 47
1.0
171
     0
 49
0.020833
 49
0.0
 49
0.0
 49
0.0
 49
0.0
 49
0.020833
 49
0.0
 49
0.0
 49
0.0
 49
0.0
 49
1.0
 49
0.0
 49
0.0
 49
0.0
 49
0.0
 49
1.0
175
     0
142
0.020833
142
0.0
142
0.0
142
0.0
142
0.0
142
0.020833
142
0.0
142
0.0
142
0.0
142
0.0
142
1.0
142
0.0
142
0.0
142
0.0
142
0.0
142
1.0
179
     0
144
0.020833
144
0.0
144
0.0
144
0.0
144
0.0
144
0.020833
144
0.0
144
0.0
144
0.0
144
0.0
144
1.0
144
0.0
144
0.0
144
0.0
144
0.0
144
1.0
147
0.020833
147
0.0
147
0.0
147
0.0
147
0.0
147
0.020833
147
0.0
147
0.0
147
0.0
147
0.0
147
1.0
147
0.0
147
0.0
147
0.0
147
0.0
147
1.0
  0
MLEADERSTYLE
  5
15E8
102
{ACAD_REACTORS
330
159A
102
}
330
159A
100
AcDbMLeaderStyle
170
     2
171
     1
172
     0
 90
        2
 40
0.0
 41
0.0
173
     1
 91
-1056964608
340
1577
 92
       -2
290
     1
 42
0.09
291
     1
 43
0.36
  3
Standard
 44
0.18
300

342
1574
174
     1
178
     6
175
     1
176
     0
 93
-1056964608
 45
0.18
292
     0
297
     0
 46
0.18
 94
-1056964608
 47
1.0
 49
1.0
140
1.0
293
     1
141
0.0
294
     1
177
     0
142
1.0
295
     0
296
     0
143
0.125
1001
ACAD_MLEADERVER
1070
     2
  0
MLINESTYLE
  5
159B
102
{ACAD_REACTORS
330
1585
102
}
330
1585
100
AcDbMlineStyle
  2
STANDARD
 70
     0
  3

 62
   256
 51
90.0
 52
90.0
 71
     2
 49
0.5
 62
   256
  6
BYLAYER
 49
-0.5
 62
   256
  6
BYLAYER
  0
ACDBPLACEHOLDER
  5
1559
102
{ACAD_REACTORS
330
155A
102
}
330
155A
  0
SCALE
  5
159F
102
{ACAD_REACTORS
330
1598
102
}
330
1598
100
AcDbScale
 70
     0
300
1:1
140
1.0
141
1.0
290
     1
  0
SCALE
  5
15A0
102
{ACAD_REACTORS
330
1598
102
}
330
1598
100
AcDbScale
 70
     0
300
1:2
140
1.0
141
2.0
290
     0
  0
SCALE
  5
15A1
102
{ACAD_REACTORS
330
1598
102
}
330
1598
100
AcDbScale
 70
     0
300
1:4
140
1.0
141
4.0
290
     0
  0
SCALE
  5
15A2
102
{ACAD_REACTORS
330
1598
102
}
330
1598
100
AcDbScale
 70
     0
300
1:5
140
1.0
141
5.0
290
     0
  0
SCALE
  5
15A3
102
{ACAD_REACTORS
330
1598
102
}
330
1598
100
AcDbScale
 70
     0
300
1:8
140
1.0
141
8.0
290
     0
  0
SCALE
  5
15A4
102
{ACAD_REACTORS
330
1598
102
}
330
1598
100
AcDbScale
 70
     0
300
1:10
140
1.0
141
10.0
290
     0
  0
SCALE
  5
15A5
102
{ACAD_REACTORS
330
1598
102
}
330
1598
100
AcDbScale
 70
     0
300
1:16
140
1.0
141
16.0
290
     0
  0
SCALE
  5
15A6
102
{ACAD_REACTORS
330
1598
102
}
330
1598
100
AcDbScale
 70
     0
300
1:20
140
1.0
141
20.0
290
     0
  0
SCALE
  5
15A7
102
{ACAD_REACTORS
330
1598
102
}
330
1598
100
AcDbScale
 70
     0
300
1:30
140
1.0
141
30.0
290
     0
  0
SCALE
  5
15A8
102
{ACAD_REACTORS
330
1598
102
}
330
1598
100
AcDbScale
 70
     0
300
1:40
140
1.0
141
40.0
290
     0
  0
SCALE
  5
15A9
102
{ACAD_REACTORS
330
1598
102
}
330
1598
100
AcDbScale
 70
     0
300
1:50
140
1.0
141
50.0
290
     0
  0
SCALE
  5
15AA
102
{ACAD_REACTORS
330
1598
102
}
330
1598
100
AcDbScale
 70
     0
300
1:100
140
1.0
141
100.0
290
     0
  0
SCALE
  5
15AB
102
{ACAD_REACTORS
330
1598
102
}
330
1598
100
AcDbScale
 70
     0
300
2:1
140
2.0
141
1.0
290
     0
  0
SCALE
  5
15AC
102
{ACAD_REACTORS
330
1598
102
}
330
1598
100
AcDbScale
 70
     0
300
4:1
140
4.0
141
1.0
290
     0
  0
SCALE
  5
15AD
102
{ACAD_REACTORS
330
1598
102
}
330
1598
100
AcDbScale
 70
     0
300
8:1
140
8.0
141
1.0
290
     0
  0
SCALE
  5
15AE
102
{ACAD_REACTORS
330
1598
102
}
330
1598
100
AcDbScale
 70
     0
300
10:1
140
10.0
141
1.0
290
     0
  0
SCALE
  5
15AF
102
{ACAD_REACTORS
330
1598
102
}
330
1598
100
AcDbScale
 70
     0
300
100:1
140
100.0
141
1.0
290
     0
  0
SCALE
  5
15B0
102
{ACAD_REACTORS
330
1598
102
}
330
1598
100
AcDbScale
 70
     0
300
1/128" = 1'-0"
140
0.007813
141
12.0
290
     0
  0
SCALE
  5
15B1
102
{ACAD_REACTORS
330
1598
102
}
330
1598
100
AcDbScale
 70
     0
300
1/64" = 1'-0"
140
0.015625
141
12.0
290
     0
  0
SCALE
  5
15B2
102
{ACAD_REACTORS
330
1598
102
}
330
1598
100
AcDbScale
 70
     0
300
1/32" = 1'-0"
140
0.03125
141
12.0
290
     0
  0
SCALE
  5
15B3
102
{ACAD_REACTORS
330
1598
102
}
330
1598
100
AcDbScale
 70
     0
300
1/16" = 1'-0"
140
0.0625
141
12.0
290
     0
  0
SCALE
  5
15B4
102
{ACAD_REACTORS
330
1598
102
}
330
1598
100
AcDbScale
 70
     0
300
3/32" = 1'-0"
140
0.09375
141
12.0
290
     0
  0
SCALE
  5
15B5
102
{ACAD_REACTORS
330
1598
102
}
330
1598
100
AcDbScale
 70
     0
300
1/8" = 1'-0"
140
0.125
141
12.0
290
     0
  0
SCALE
  5
15B6
102
{ACAD_REACTORS
330
1598
102
}
330
1598
100
AcDbScale
 70
     0
300
3/16" = 1'-0"
140
0.1875
141
12.0
290
     0
  0
SCALE
  5
15B7
102
{ACAD_REACTORS
330
1598
102
}
330
1598
100
AcDbScale
 70
     0
300
1/4" = 1'-0"
140
0.25
141
12.0
290
     0
  0
SCALE
  5
15B8
102
{ACAD_REACTORS
330
1598
102
}
330
1598
100
AcDbScale
 70
     0
300
3/8" = 1'-0"
140
0.375
141
12.0
290
     0
  0
SCALE
  5
15B9
102
{ACAD_REACTORS
330
1598
102
}
330
1598
100
AcDbScale
 70
     0
300
1/2" = 1'-0"
140
0.5
141
12.0
290
     0
  0
SCALE
  5
15BA
102
{ACAD_REACTORS
330
1598
102
}
330
1598
100
AcDbScale
 70
     0
300
3/4" = 1'-0"
140
0.75
141
12.0
290
     0
  0
SCALE
  5
15BB
102
{ACAD_REACTORS
330
1598
102
}
330
1598
100
AcDbScale
 70
     0
300
1" = 1'-0"
140
1.0
141
12.0
290
     0
  0
SCALE
  5
15BC
102
{ACAD_REACTORS
330
1598
102
}
330
1598
100
AcDbScale
 70
     0
300
1-1/2" = 1'-0"
140
1.5
141
12.0
290
     0
  0
SCALE
  5
15BD
102
{ACAD_REACTORS
330
1598
102
}
330
1598
100
AcDbScale
 70
     0
300
3" = 1'-0"
140
3.0
141
12.0
290
     0
  0
SCALE
  5
15BE
102
{ACAD_REACTORS
330
1598
102
}
330
1598
100
AcDbScale
 70
     0
300
6" = 1'-0"
140
6.0
141
12.0
290
     0
  0
SCALE
  5
15BF
102
{ACAD_REACTORS
330
1598
102
}
330
1598
100
AcDbScale
 70
     0
300
1'-0" = 1'-0"
140
12.0
141
12.0
290
     0
  0
TABLESTYLE
  5
159C
102
{ACAD_XDICTIONARY
360
15CC
102
}
102
{ACAD_REACTORS
330
1599
102
}
330
1599
100
AcDbTableStyle
  3
Standard
 70
     0
 71
     0
 40
0.06
 41
0.06
280
     0
281
     0
  7
Standard
140
0.18
170
     2
 62
     0
 63
     7
283
     0
 90
        4
 91
        0
  1

274
    -2
284
     1
 64
     0
275
    -2
285
     1
 65
     0
276
    -2
286
     1
 66
     0
277
    -2
287
     1
 67
     0
278
    -2
288
     1
 68
     0
279
    -2
289
     1
 69
     0
  7
Standard
140
0.25
170
     5
 62
     0
 63
     7
283
     0
 90
        4
 91
        0
  1

274
    -2
284
     1
 64
     0
275
    -2
285
     1
 65
     0
276
    -2
286
     1
 66
     0
277
    -2
287
     1
 67
     0
278
    -2
288
     1
 68
     0
279
    -2
289
     1
 69
     0
  7
Standard
140
0.18
170
     5
 62
     0
 63
     7
283
     0
 90
        4
 91
        0
  1

274
    -2
284
     1
 64
     0
275
    -2
285
     1
 65
     0
276
    -2
286
     1
 66
     0
277
    -2
287
     1
 67
     0
278
    -2
288
     1
 68
     0
279
    -2
289
     1
 69
     0
  0
VISUALSTYLE
  5
157D
102
{ACAD_XDICTIONARY
360
1660
102
}
102
{ACAD_REACTORS
330
157E
102
}
330
157E
100
AcDbVisualStyle
  2

 70
     4
 71
     0
 72
     2
 73
     0
 90
        0
 40
-0.6
 41
-30.0
 62
     5
 63
     7
421
 16777215
 74
     1
 91
        4
 64
     7
 65
   257
 75
     1
175
     1
 42
1.0
 92
        0
 66
   257
 43
1.0
 76
     1
 77
     6
 78
     2
 67
     7
 79
     5
170
     0
171
     0
290
     0
174
     0
 93
        1
 44
0.0
173
     0
291
     0
 45
0.0
1001
ACAD
1000
AcDbSavedByObjectVersion
1070
     0
  0
VISUALSTYLE
  5
15DD
102
{ACAD_XDICTIONARY
360
1670
102
}
102
{ACAD_REACTORS
330
157E
102
}
330
157E
100
AcDbVisualStyle
  2
3D Hidden
 70
     6
 71
     1
 72
     2
 73
     2
 90
        0
 40
-0.6
 41
-30.0
 62
     5
 63
     7
421
 16777215
 74
     2
 91
        2
 64
     7
 65
   257
 75
     2
175
     1
 42
179.0
 92
        0
 66
   257
 43
1.0
 76
     1
 77
     6
 78
     2
 67
     7
 79
     3
170
     0
171
     0
290
     0
174
     0
 93
        1
 44
0.0
173
     0
291
     0
 45
0.0
1001
ACAD
1000
AcDbSavedByObjectVersion
1070
     0
  0
VISUALSTYLE
  5
159E
102
{ACAD_XDICTIONARY
360
1664
102
}
102
{ACAD_REACTORS
330
157E
102
}
330
157E
100
AcDbVisualStyle
  2

 70
     5
 71
     0
 72
     2
 73
     0
 90
        0
 40
-0.6
 41
-30.0
 62
     5
 63
     7
421
 16777215
 74
     1
 91
        4
 64
     7
 65
   257
 75
     1
175
     1
 42
1.0
 92
        0
 66
   257
 43
1.0
 76
     1
 77
     6
 78
     2
 67
     7
 79
     5
170
     0
171
     0
290
     0
174
     0
 93
        1
 44
0.0
173
     0
291
     0
 45
0.0
1001
ACAD
1000
AcDbSavedByObjectVersion
1070
     0
  0
VISUALSTYLE
  5
15DC
102
{ACAD_XDICTIONARY
360
166E
102
}
102
{ACAD_REACTORS
330
157E
102
}
330
157E
100
AcDbVisualStyle
  2
Basic
 70
     7
 71
     1
 72
     0
 73
     1
 90
        0
 40
-0.6
 41
-30.0
 62
     5
 63
     7
421
 16777215
 74
     0
 91
        4
 64
     7
 65
   257
 75
     1
175
     1
 42
1.0
 92
        8
 66
     7
 43
1.0
 76
     1
 77
     6
 78
     2
 67
     7
 79
     5
170
     0
171
     0
290
     0
174
     0
 93
        1
 44
0.0
173
     0
291
     1
 45
0.0
1001
ACAD
1000
AcDbSavedByObjectVersion
1070
     0
  0
VISUALSTYLE
  5
15E0
102
{ACAD_XDICTIONARY
360
1676
102
}
102
{ACAD_REACTORS
330
157E
102
}
330
157E
100
AcDbVisualStyle
  2
Brighten
 70
    12
 71
     2
 72
     2
 73
     0
 90
        0
 40
-0.6
 41
-30.0
 62
     5
 63
     7
421
 16777215
 74
     1
 91
        4
 64
     7
 65
   257
 75
     1
175
     1
 42
1.0
 92
        8
 66
     7
 43
1.0
 76
     1
 77
     6
 78
     2
 67
     7
 79
     5
170
     0
171
     0
290
     0
174
     0
 93
        1
 44
50.0
173
     0
291
     1
 45
0.0
1001
ACAD
1000
AcDbSavedByObjectVersion
1070
     0
  0
VISUALSTYLE
  5
15E4
102
{ACAD_XDICTIONARY
360
167E
102
}
102
{ACAD_REACTORS
330
157E
102
}
330
157E
100
AcDbVisualStyle
  2
ColorChange
 70
    16
 71
     2
 72
     2
 73
     3
 90
        0
 40
-0.6
 41
-30.0
 62
     5
 63
     8
421
  8421504
 74
     1
 91
        4
 64
     7
 65
   257
 75
     1
175
     1
 42
1.0
 92
        8
 66
     8
424
  8421504
 43
1.0
 76
     1
 77
     6
 78
     2
 67
     7
 79
     5
170
     0
171
     0
290
     0
174
     0
 93
        1
 44
0.0
173
     0
291
     1
 45
0.0
1001
ACAD
1000
AcDbSavedByObjectVersion
1070
     0
  0
VISUALSTYLE
  5
15DE
102
{ACAD_XDICTIONARY
360
1672
102
}
102
{ACAD_REACTORS
330
157E
102
}
330
157E
100
AcDbVisualStyle
  2
Conceptual
 70
     9
 71
     3
 72
     2
 73
     0
 90
        0
 40
-0.6
 41
-30.0
 62
     5
 63
     7
421
 16777215
 74
     2
 91
        2
 64
     7
 65
   257
 75
     1
175
     1
 42
179.0
 92
        8
 66
     7
 43
1.0
 76
     1
 77
     6
 78
     2
 67
     7
 79
     3
170
     0
171
     0
290
     0
174
     0
 93
        1
 44
0.0
173
     0
291
     0
 45
0.0
1001
ACAD
1000
AcDbSavedByObjectVersion
1070
     0
  0
VISUALSTYLE
  5
15DF
102
{ACAD_XDICTIONARY
360
1674
102
}
102
{ACAD_REACTORS
330
157E
102
}
330
157E
100
AcDbVisualStyle
  2
Dim
 70
    11
 71
     2
 72
     2
 73
     0
 90
        0
 40
-0.6
 41
-30.0
 62
     5
 63
     7
421
 16777215
 74
     1
 91
        4
 64
     7
 65
   257
 75
     1
175
     1
 42
1.0
 92
        8
 66
     7
 43
1.0
 76
     1
 77
     6
 78
     2
 67
     7
 79
     5
170
     0
171
     0
290
     0
174
     0
 93
        1
 44
-50.0
173
     0
291
     1
 45
0.0
1001
ACAD
1000
AcDbSavedByObjectVersion
1070
     0
  0
VISUALSTYLE
  5
15E7
102
{ACAD_XDICTIONARY
360
1684
102
}
102
{ACAD_REACTORS
330
157E
102
}
330
157E
100
AcDbVisualStyle
  2
EdgeColorOff
 70
    22
 71
     2
 72
     2
 73
     0
 90
        0
 40
-0.6
 41
-30.0
 62
     5
 63
     7
421
 16777215
 74
     1
 91
        4
 64
     7
 65
   257
 75
     1
175
     1
 42
1.0
 92
        8
 66
     7
 43
1.0
 76
     1
 77
     6
 78
     2
 67
     7
 79
     5
170
     0
171
     0
290
     0
174
     0
 93
        1
 44
0.0
173
     0
291
     1
 45
0.0
1001
ACAD
1000
AcDbSavedByObjectVersion
1070
     0
  0
VISUALSTYLE
  5
15E3
102
{ACAD_XDICTIONARY
360
167C
102
}
102
{ACAD_REACTORS
330
157E
102
}
330
157E
100
AcDbVisualStyle
  2
Facepattern
 70
    15
 71
     2
 72
     2
 73
     0
 90
        0
 40
-0.6
 41
-30.0
 62
     5
 63
     7
421
 16777215
 74
     1
 91
        4
 64
     7
 65
   257
 75
     1
175
     1
 42
1.0
 92
        8
 66
     7
 43
1.0
 76
     1
 77
     6
 78
     2
 67
     7
 79
     5
170
     0
171
     0
290
     0
174
     0
 93
        1
 44
0.0
173
     0
291
     1
 45
0.0
1001
ACAD
1000
AcDbSavedByObjectVersion
1070
     0
  0
VISUALSTYLE
  5
15D8
102
{ACAD_XDICTIONARY
360
1666
102
}
102
{ACAD_REACTORS
330
157E
102
}
330
157E
100
AcDbVisualStyle
  2
Flat
 70
     0
 71
     2
 72
     1
 73
     1
 90
        2
 40
-0.6
 41
30.0
 62
     5
 63
     7
421
 16777215
 74
     0
 91
        4
 64
     7
 65
   257
 75
     1
175
     1
 42
1.0
 92
        8
 66
     7
 43
1.0
 76
     1
 77
     6
 78
     2
 67
     7
 79
     5
170
     0
171
     0
290
     0
174
     0
 93
       13
 44
0.0
173
     0
291
     1
 45
0.0
1001
ACAD
1000
AcDbSavedByObjectVersion
1070
     0
  0
VISUALSTYLE
  5
15D9
102
{ACAD_XDICTIONARY
360
1668
102
}
102
{ACAD_REACTORS
330
157E
102
}
330
157E
100
AcDbVisualStyle
  2
FlatWithEdges
 70
     1
 71
     2
 72
     1
 73
     1
 90
        2
 40
-0.6
 41
30.0
 62
     5
 63
     7
421
 16777215
 74
     1
 91
        4
 64
     7
 65
   257
 75
     1
175
     1
 42
1.0
 92
        0
 66
   257
 43
1.0
 76
     1
 77
     6
 78
     2
 67
     7
 79
     5
170
     0
171
     0
290
     0
174
     0
 93
       13
 44
0.0
173
     0
291
     1
 45
0.0
1001
ACAD
1000
AcDbSavedByObjectVersion
1070
     0
  0
VISUALSTYLE
  5
15DA
102
{ACAD_XDICTIONARY
360
166A
102
}
102
{ACAD_REACTORS
330
157E
102
}
330
157E
100
AcDbVisualStyle
  2
Gouraud
 70
     2
 71
     2
 72
     2
 73
     1
 90
        2
 40
-0.6
 41
30.0
 62
     5
 63
     7
421
 16777215
 74
     0
 91
        4
 64
     7
 65
   257
 75
     1
175
     1
 42
1.0
 92
        0
 66
     7
 43
1.0
 76
     1
 77
     6
 78
     2
 67
     7
 79
     5
170
     0
171
     0
290
     0
174
     0
 93
       13
 44
0.0
173
     0
291
     1
 45
0.0
1001
ACAD
1000
AcDbSavedByObjectVersion
1070
     0
  0
VISUALSTYLE
  5
15DB
102
{ACAD_XDICTIONARY
360
166C
102
}
102
{ACAD_REACTORS
330
157E
102
}
330
157E
100
AcDbVisualStyle
  2
GouraudWithEdges
 70
     3
 71
     2
 72
     2
 73
     1
 90
        2
 40
-0.6
 41
30.0
 62
     5
 63
     7
421
 16777215
 74
     1
 91
        4
 64
     7
 65
   257
 75
     1
175
     1
 42
1.0
 92
        0
 66
   257
 43
1.0
 76
     1
 77
     6
 78
     2
 67
     7
 79
     5
170
     0
171
     0
290
     0
174
     0
 93
       13
 44
0.0
173
     0
291
     1
 45
0.0
1001
ACAD
1000
AcDbSavedByObjectVersion
1070
     0
  0
VISUALSTYLE
  5
15E5
102
{ACAD_XDICTIONARY
360
1680
102
}
102
{ACAD_REACTORS
330
157E
102
}
330
157E
100
AcDbVisualStyle
  2
JitterOff
 70
    20
 71
     2
 72
     2
 73
     0
 90
        0
 40
-0.6
 41
-30.0
 62
     5
 63
     7
421
 16777215
 74
     1
 91
        4
 64
     7
 65
   257
 75
     1
175
     1
 42
1.0
 92
       10
 66
     7
 43
1.0
 76
     1
 77
     6
 78
     2
 67
     7
 79
     5
170
     0
171
     0
290
     0
174
     0
 93
        1
 44
0.0
173
     0
291
     1
 45
0.0
1001
ACAD
1000
AcDbSavedByObjectVersion
1070
     0
  0
VISUALSTYLE
  5
15E2
102
{ACAD_XDICTIONARY
360
167A
102
}
102
{ACAD_REACTORS
330
157E
102
}
330
157E
100
AcDbVisualStyle
  2
Linepattern
 70
    14
 71
     2
 72
     2
 73
     0
 90
        0
 40
-0.6
 41
-30.0
 62
     5
 63
     7
421
 16777215
 74
     1
 91
        4
 64
     7
 65
   257
 75
     7
175
     7
 42
1.0
 92
        8
 66
     7
 43
1.0
 76
     1
 77
     6
 78
     2
 67
     7
 79
     5
170
     0
171
     0
290
     0
174
     0
 93
        1
 44
0.0
173
     0
291
     1
 45
0.0
1001
ACAD
1000
AcDbSavedByObjectVersion
1070
     0
  0
VISUALSTYLE
  5
15E6
102
{ACAD_XDICTIONARY
360
1682
102
}
102
{ACAD_REACTORS
330
157E
102
}
330
157E
100
AcDbVisualStyle
  2
OverhangOff
 70
    21
 71
     2
 72
     2
 73
     0
 90
        0
 40
-0.6
 41
-30.0
 62
     5
 63
     7
421
 16777215
 74
     1
 91
        4
 64
     7
 65
   257
 75
     1
175
     1
 42
1.0
 92
        9
 66
     7
 43
1.0
 76
     1
 77
     6
 78
     2
 67
     7
 79
     5
170
     0
171
     0
290
     0
174
     0
 93
        1
 44
0.0
173
     0
291
     1
 45
0.0
1001
ACAD
1000
AcDbSavedByObjectVersion
1070
     0
  0
VISUALSTYLE
  5
159D
102
{ACAD_XDICTIONARY
360
1662
102
}
102
{ACAD_REACTORS
330
157E
102
}
330
157E
100
AcDbVisualStyle
  2

 70
     8
 71
     2
 72
     2
 73
     0
 90
        0
 40
-0.6
 41
-30.0
 62
     5
 63
     7
421
 16777215
 74
     1
 91
        0
 64
     7
 65
   257
 75
     1
175
     1
 42
1.0
 92
        8
 66
     8
424
  7895160
 43
1.0
 76
     1
 77
     6
 78
     2
 67
     7
 79
     5
170
     0
171
     0
290
     0
174
     0
 93
       13
 44
0.0
173
     0
291
     0
 45
0.0
1001
ACAD
1000
AcDbSavedByObjectVersion
1070
     0
  0
VISUALSTYLE
  5
15E1
102
{ACAD_XDICTIONARY
360
1678
102
}
102
{ACAD_REACTORS
330
157E
102
}
330
157E
100
AcDbVisualStyle
  2
Thicken
 70
    13
 71
     2
 72
     2
 73
     0
 90
        0
 40
-0.6
 41
-30.0
 62
     5
 63
     7
421
 16777215
 74
     1
 91
        4
 64
     7
 65
   257
 75
     1
175
     1
 42
1.0
 92
       12
 66
     7
 43
1.0
 76
     1
 77
     6
 78
     2
 67
     7
 79
     5
170
     0
171
     0
290
     0
174
     0
 93
        1
 44
0.0
173
     0
291
     1
 45
0.0
1001
ACAD
1000
AcDbSavedByObjectVersion
1070
     0
  0
DICTIONARYVAR
  5
15C8
102
{ACAD_REACTORS
330
15C4
102
}
330
15C4
100
DictionaryVariables
280
     0
  1
1:1
  0
DICTIONARYVAR
  5
15C6
102
{ACAD_REACTORS
330
15C4
102
}
330
15C4
100
DictionaryVariables
280
     0
  1
STANDARD
  0
DICTIONARYVAR
  5
15C5
102
{ACAD_REACTORS
330
15C4
102
}
330
15C4
100
DictionaryVariables
280
     0
  1
STANDARD
  0
DICTIONARYVAR
  5
15CA
102
{ACAD_REACTORS
330
15C4
102
}
330
15C4
100
DictionaryVariables
280
     0
  1
1
  0
DICTIONARYVAR
  5
15CB
102
{ACAD_REACTORS
330
15C4
102
}
330
15C4
100
DictionaryVariables
280
     0
  1
15
  0
DICTIONARYVAR
  5
15C9
102
{ACAD_REACTORS
330
15C4
102
}
330
15C4
100
DictionaryVariables
280
     0
  1
0
  0
DICTIONARYVAR
  5
15C7
102
{ACAD_REACTORS
330
15C4
102
}
330
15C4
100
DictionaryVariables
280
     0
  1
0
  0
DICTIONARY
  5
156D
330
156C
100
AcDbDictionary
280
     1
281
     1
  3
ADSK_XREC_LAYOUTTHUMBNAIL
360
156E
  0
DICTIONARY
  5
1590
330
158F
100
AcDbDictionary
280
     1
281
     1
  3
BUMPTILE
360
1591
  3
DIFFUSETILE
360
1592
  3
OPACITYTILE
360
1593
  3
REFLECTIONTILE
360
1594
  3
REFRACTIONTILE
360
1595
  3
SPECULARTILE
360
1596
  0
DICTIONARY
  5
1588
330
1587
100
AcDbDictionary
280
     1
281
     1
  3
BUMPTILE
360
1589
  3
DIFFUSETILE
360
158A
  3
OPACITYTILE
360
158B
  3
REFLECTIONTILE
360
158C
  3
REFRACTIONTILE
360
158D
  3
SPECULARTILE
360
158E
  0
DICTIONARY
  5
155E
330
155C
100
AcDbDictionary
280
     1
281
     1
  3
BUMPTILE
360
155F
  3
DIFFUSETILE
360
1560
  3
OPACITYTILE
360
1561
  3
REFLECTIONTILE
360
1562
  3
REFRACTIONTILE
360
1563
  3
SPECULARTILE
360
1564
  0
DICTIONARY
  5
15CC
330
159C
100
AcDbDictionary
280
     1
281
     1
  3
ACAD_ROUNDTRIP_2008_TABLESTYLE_CELLSTYLEMAP
360
165E
  0
DICTIONARY
  5
1660
330
157D
100
AcDbDictionary
280
     1
281
     1
  3
ACAD_XREC_ROUNDTRIP
360
1661
  0
DICTIONARY
  5
1670
330
15DD
100
AcDbDictionary
280
     1
281
     1
  3
ACAD_XREC_ROUNDTRIP
360
1671
  0
DICTIONARY
  5
1664
330
159E
100
AcDbDictionary
280
     1
281
     1
  3
ACAD_XREC_ROUNDTRIP
360
1665
  0
DICTIONARY
  5
166E
330
15DC
100
AcDbDictionary
280
     1
281
     1
  3
ACAD_XREC_ROUNDTRIP
360
166F
  0
DICTIONARY
  5
1676
330
15E0
100
AcDbDictionary
280
     1
281
     1
  3
ACAD_XREC_ROUNDTRIP
360
1677
  0
DICTIONARY
  5
167E
330
15E4
100
AcDbDictionary
280
     1
281
     1
  3
ACAD_XREC_ROUNDTRIP
360
167F
  0
DICTIONARY
  5
1672
330
15DE
100
AcDbDictionary
280
     1
281
     1
  3
ACAD_XREC_ROUNDTRIP
360
1673
  0
DICTIONARY
  5
1674
330
15DF
100
AcDbDictionary
280
     1
281
     1
  3
ACAD_XREC_ROUNDTRIP
360
1675
  0
DICTIONARY
  5
1684
330
15E7
100
AcDbDictionary
280
     1
281
     1
  3
ACAD_XREC_ROUNDTRIP
360
1685
  0
DICTIONARY
  5
167C
330
15E3
100
AcDbDictionary
280
     1
281
     1
  3
ACAD_XREC_ROUNDTRIP
360
167D
  0
DICTIONARY
  5
1666
330
15D8
100
AcDbDictionary
280
     1
281
     1
  3
ACAD_XREC_ROUNDTRIP
360
1667
  0
DICTIONARY
  5
1668
330
15D9
100
AcDbDictionary
280
     1
281
     1
  3
ACAD_XREC_ROUNDTRIP
360
1669
  0
DICTIONARY
  5
166A
330
15DA
100
AcDbDictionary
280
     1
281
     1
  3
ACAD_XREC_ROUNDTRIP
360
166B
  0
DICTIONARY
  5
166C
330
15DB
100
AcDbDictionary
280
     1
281
     1
  3
ACAD_XREC_ROUNDTRIP
360
166D
  0
DICTIONARY
  5
1680
330
15E5
100
AcDbDictionary
280
     1
281
     1
  3
ACAD_XREC_ROUNDTRIP
360
1681
  0
DICTIONARY
  5
167A
330
15E2
100
AcDbDictionary
280
     1
281
     1
  3
ACAD_XREC_ROUNDTRIP
360
167B
  0
DICTIONARY
  5
1682
330
15E6
100
AcDbDictionary
280
     1
281
     1
  3
ACAD_XREC_ROUNDTRIP
360
1683
  0
DICTIONARY
  5
1662
330
159D
100
AcDbDictionary
280
     1
281
     1
  3
ACAD_XREC_ROUNDTRIP
360
1663
  0
DICTIONARY
  5
1678
330
15E1
100
AcDbDictionary
280
     1
281
     1
  3
ACAD_XREC_ROUNDTRIP
360
1679
  0
XRECORD
  5
156E
102
{ACAD_REACTORS
330
156D
102
}
330
156D
100
AcDbXrecord
280
     1
310
28000000B40000008B0000000100080000000000BC61000000000000000000000001000000000000FFFFFF0000000000FFFFFF000000000000000000000000000000000000000000000000000000000000000000330000006600000099000000CC000000FF00000000330000333300006633000099330000CC330000FF3300
310
0000660000336600006666000099660000CC660000FF66000000990000339900006699000099990000CC990000FF99000000CC000033CC000066CC000099CC0000CCCC0000FFCC000000FF000033FF000066FF000099FF0000CCFF0000FFFF000000003300330033006600330099003300CC003300FF003300003333003333
310
33006633330099333300CC333300FF33330000663300336633006666330099663300CC663300FF66330000993300339933006699330099993300CC993300FF99330000CC330033CC330066CC330099CC3300CCCC3300FFCC330000FF330033FF330066FF330099FF3300CCFF3300FFFF330000006600330066006600660099
310
006600CC006600FF00660000336600333366006633660099336600CC336600FF33660000666600336666006666660099666600CC666600FF66660000996600339966006699660099996600CC996600FF99660000CC660033CC660066CC660099CC6600CCCC6600FFCC660000FF660033FF660066FF660099FF6600CCFF6600
310
FFFF660000009900330099006600990099009900CC009900FF00990000339900333399006633990099339900CC339900FF33990000669900336699006666990099669900CC669900FF66990000999900339999006699990099999900CC999900FF99990000CC990033CC990066CC990099CC9900CCCC9900FFCC990000FF99
310
0033FF990066FF990099FF9900CCFF9900FFFF99000000CC003300CC006600CC009900CC00CC00CC00FF00CC000033CC003333CC006633CC009933CC00CC33CC00FF33CC000066CC003366CC006666CC009966CC00CC66CC00FF66CC000099CC003399CC006699CC009999CC00CC99CC00FF99CC0000CCCC0033CCCC0066CC
310
CC0099CCCC00CCCCCC00FFCCCC0000FFCC0033FFCC0066FFCC0099FFCC00CCFFCC00FFFFCC000000FF003300FF006600FF009900FF00CC00FF00FF00FF000033FF003333FF006633FF009933FF00CC33FF00FF33FF000066FF003366FF006666FF009966FF00CC66FF00FF66FF000099FF003399FF006699FF009999FF00CC
310
99FF00FF99FF0000CCFF0033CCFF0066CCFF0099CCFF00CCCCFF00FFCCFF0000FFFF0033FFFF0066FFFF0099FFFF00CCFFFF00FFFFFF00000000000D0D0D001A1A1A00282828003535350043434300505050005D5D5D006B6B6B00787878008686860093939300A1A1A100AEAEAE00BBBBBB00C9C9C900D6D6D600E4E4E400
310
F1F1F100FFFFFF0000000000000000000000000000000000000000000000000000000000000000000000000000000000E2E2E2E2E2E2E2E2E2E2E2E2E2E2E2E2E2E2E2E2E2E2E2E2E2E2E2E2E2E2E2E2E2E2E2E2E2E2E2E2E2E2E2E2E2E2E2E2E2E2E2E2E2E2E2E2E2E2E2E2E2E2E2E2E2E2E2E2E2E2E2E2E2E2E2E2E2E2E2
310
E2E2E2E2E2E2E2E2E2E2E2E2E2E2E2E2E2E2E2E2E2E2E2E2E2E2E2E2E2E2E2E2E2E2E2E2E2E2E2E2E2E2E2E2E2E2E2E2E2E2E2E2E2E2E2E2E2E2E2E2E2E2E2E2E2E2E2E2E2E2E2E2E2E2E2E2E2E2E2E2E2E2E2E2E2E2E2E2E2E2E2E2E2E2E2E2E2E2E2E2EFF5F5F5F5F5F5F5F5F5F5F5F5F5F5F5F5F5F5F5F5F5F5F5F5F5F5
310
F5F5F5F5F5F5F5F5F5F5F5F5F5F5F5F5F5F5F5F5F5F5F5F5F5F5F5F5F5F5F5F5F5F5F5F5F5F5F5F5F5F5F5F5F5F5F5F5F5F5F5F5F5F5F5F5F5F5F5F5F5F5F5F5F5F5F5F5F5F5F5F5F5F5F5F5F5F5F5F5F5F5F5F5F5F5F5F5F5F5F5F5F5F5F5F5F5F5F5F5F5F5F5F5F5F5F5F5F5F5F5F5F5F5F5F5F5F5F5F5F5F5F5F5F5F5F5
310
F5F5F5F5F5F5F5F5F5F5F5F5F5F5F5F5F5F5F5F5F5F5F5F5E2E2EFF5F5F5F5F5F5F5F5F5F5F5F5F5F5F5F5F5F5F5F5F5F5F5F5F5F5F5F5F5F5F5F5F5F5F5F5F5F5F5F5F5F5F5F5F5F5F5F5F5F5F5F5F5F5F5F5F5F5F5F5F5F5F5F5F5F5F5F5F5F5F5F5F5F5F5F5F5F5F5F5F5F5F5F5F5F5F5F5F5F5F5F5F5F5F5F5F5F5F5F5
310
F5F5F5F5F5F5F5F5F5F5F5F5F5F5F5F5F5F5F5F5F5F5F5F5F5F5F5F5F5F5F5F5F5F5F5F5F5F5F5F5F5F5F5F5F5F5F5F5F5F5F5F5F5F5F5F5F5F5F5F5F5F5F5F5F5F5F5F5F5F5F5F5F5F5F5F5F5E2E2EFF5F5F5F5F5F5F5F5F5F5F5F5F5F5F5F5F5F5F5F5F5F5F5F5F5F5F5F5F5F5F5F5F5F5F5F5F5F5F5F5F5F5F5F5F5F5F5
310
F5F5F5F5F5F5F5F5F5F5F5F5F5F5F5F5F5F5F5F5F5F5F5F5F5F5F5F5F5F5F5F5F5F5F5F5F5F5F5F5F5F5F5F5F5F5F5F5F5F5F5F5F5F5F5F5F5F5F5F5F5F5F5F5F5F5F5F5F5F5F5F5F5F5F5F5F5F5F5F5F5F5F5F5F5F5F5F5F5F5F5F5F5F5F5F5F5F5F5F5F5F5F5F5F5F5F5F5F5F5F5F5F5F5F5F5F5F5F5F5F5F5F5F5F5F5F5
310
F5F5F5E2E2EFF5F5F5E2E2E2E2E2E2E2E2F5F5F5F5F5F5F5F5F5E2E2E2E2E2E2E2E2E2E2E2E2E2E2E2E2F5F5F5F5F5F5F5F5E2E2E2E2E2E2E2E2E2E2E2E2E2E2E2E2F5F5F5F5F5F5F5F5F5E2E2E2E2E2E2E2E2E2E2E2E2E2E2E2F5F5F5F5F5F5F5F5F5E2E2E2E2E2E2E2E2E2E2E2E2E2E2E2F5F5F5F5F5F5F5F5F5E2E2E2E2
310
E2E2E2E2E2E2E2E2E2E2E2E2F5F5F5F5F5F5F5F5E2E2E2E2E2E2E2E2E2E2E2E2E2E2E2E2F5F5F5F5F5F5F5F5F5E2E2E2E2E2E2E2E2F5F5F5E2E2EFF5F5F5E2F5F5F5F5F5F5F5F5F5F5F5F5F5F5F5F5F5F5F5F5F5F5F5F5F5F5F5F5F5F5F5F5F5F5F5F5F5F5F5F5F5F5F5F5F5F5F5F5F5F5F5F5F5F5F5F5F5F5F5F5F5F5F5F5
310
F5F5F5F5F5F5F5F5F5F5F5F5F5F5F5F5F5F5F5F5F5F5F5F5F5F5F5F5F5F5F5F5F5F5F5F5F5F5F5F5F5F5F5F5F5F5F5F5F5F5F5F5F5F5F5F5F5F5F5F5F5F5F5F5F5F5F5F5F5F5F5F5F5F5F5F5F5F5F5F5F5F5F5F5F5F5F5F5F5F5F5F5F5F5F5F5F5F5F5F5F5F5F5F5F5E2F5F5F5E2E2EFF5F5F5E2F5F5F5F5F5F5F5F5F5F5F5
310
F5F5F5F5F5F5F5F5F5F5F5F5F5F5F5F5F5F5F5F5F5F5F5F5F5F5F5F5F5F5F5F5F5F5F5F5F5F5F5F5F5F5F5F5F5F5F5F5F5F5F5F5F5F5F5F5F5F5F5F5F5F5F5F5F5F5F5F5F5F5F5F5F5F5F5F5F5F5F5F5F5F5F5F5F5F5F5F5F5F5F5F5F5F5F5F5F5F5F5F5F5F5F5F5F5F5F5F5F5F5F5F5F5F5F5F5F5F5F5F5F5F5F5F5F5F5F5
310
F5F5F5F5F5F5F5F5F5F5F5F5F5F5F5F5F5F5F5F5F5F5F5F5F5F5F5F5F5F5F5E2F5F5F5E2E2EFF5F5F5E2F5F5F5F5F5F5F5F5F5F5F5F5F5F5F5F5F5F5F5F5F5F5F5F5F5F5F5F5F5F5F5F5F5F5F5F5F5F5F5F5F5F5F5F5F5F5F5F5F5F5F5F5F5F5F5F5F5F5F5F5F5F5F5F5F5F5F5F5F5F5F5F5F5F5F5F5F5F5F5F5F5F5F5F5F5
310
F5F5F5F5F5F5F5F5F5F5F5F5F5F5F5F5F5F5F5F5F5F5F5F5F5F5F5F5F5F5F5F5F5F5F5F5F5F5F5F5F5F5F5F5F5F5F5F5F5F5F5F5F5F5F5F5F5F5F5F5F5F5F5F5F5F5F5F5F5F5F5F5F5F5F5F5F5F5F5F5F5F5F5F5E2F5F5F5E2E2EFF5F5F5E2F5F5F5F5F5F5F5F5F5F5F5F5F5F5F5F5F5F5F5F5F5F5F5F5F5F5F5F5F5F5F5F5
310
F5F5F5F5F5F5F5F5F5F5F5F5F5F5F5F5F5F5F5F5F5F5F5F5F5F5F5F5F5F5F5F5F5F5F5F5F5F5F5F5F5F5F5F5F5F5F5F5F5F5F5F5F5F5F5F5F5F5F5F5F5F5F5F5F5F5F5F5F5F5F5F5F5F5F5F5F5F5F5F5F5F5F5F5F5F5F5F5F5F5F5F5F5F5F5F5F5F5F5F5F5F5F5F5F5F5F5F5F5F5F5F5F5F5F5F5F5F5F5F5F5F5F5F5F5F5F5
310
F5F5F5F5F5F5F5F5F5F5E2F5F5F5E2E2EFF5F5F5E2F5F5F5F5F5F5F5F5F5F5F5F5F5F5F5F5F5F5F5F5F5F5F5F5F5F5F5F5F5F5F5F5F5F5F5F5F5F5F5F5F5F5F5F5F5F5F5F5F5F5F5F5F5F5F5F5F5F5F5F5F5F5F5F5F5F5F5F5F5F5F5F5F5F5F5F5F5F5F5F5F5F5F5F5F5F5F5F5F5F5F5F5F5F5F5F5F5F5F5F5F5F5F5F5F5F5
310
F5F5F5F5F5F5F5F5F5F5F5F5F5F5F5F5F5F5F5F5F5F5F5F5F5F5F5F5F5F5F5F5F5F5F5F5F5F5F5F5F5F5F5F5F5F5F5F5F5F5F5F5F5F5F5F5F5F5F5F5F5F5F5E2F5F5F5E2E2EFF5F5F5E2F5F5F5F5F5F5F5F5F5F5F5F5F5F5F5F5F5F5F5F5F5F5F5F5F5F5F5F5F5F5F5F5F5F5F5F5F5F5F5F5F5F5F5F5F5F5F5F5F5F5F5F5F5
310
F5F5F5F5F5F5F5F5F5F5F5F5F5F5F5F5F5F5F5F5F5F5F5F5F5F5F5F5F5F5F5F5F5F5F5F5F5F5F5F5F5F5F5F5F5F5F5F5F5F5F5F5F5F5F5F5F5F5F5F5F5F5F5F5F5F5F5F5F5F5F5F5F5F5F5F5F5F5F5F5F5F5F5F5F5F5F5F5F5F5F5F5F5F5F5F5F5F5F5F5F5F5F5F5F5F5F5F5F5F5F5F5F5F5F5F5E2F5F5F5E2E2EFF5F5F5E2
310
F5F5F5F5F5F5F5F5F5F5F5F5F5F5F5F5F5F5F5F5F5F5F5F5F5F5F5F5F5F5F5F5F5F5F5F5F5F5F5F5F5F5F5F5F5F5F5F5F5F5F5F5F5F5F5F5F5F5F5F5F5F5F5F5F5F5F5F5F5F5F5F5F5F5F5F5F5F5F5F5F5F5F5F5F5F5F5F5F5F5F5F5F5F5F5F5F5F5F5F5F5F5F5F5F5F5F5F5F5F5F5F5F5F5F5F5F5F5F5F5F5F5F5F5F5F5F5
310
F5F5F5F5F5F5F5F5F5F5F5F5F5F5F5F5F5F5F5F5F5F5F5F5F5F5F5F5F5F5F5F5F5F5F5F5F5F5F5F5F5F5E2F5F5F5E2E2EFF5F5F5E2F5F5F5F5F5F5F5F5F5F5F5F5F5F5F5F5F5F5F5F5F5F5F5F5F5F5F5F5F5F5F5F5F5F5F5F5F5F5F5F5F5F5F5F5F5F5F5F5F5F5F5F5F5F5F5F5F5F5F5F5F5F5F5F5F5F5F5F5F5F5F5F5F5F5
310
F5F5F5F5F5F5F5F5F5F5F5F5F5F5F5F5F5F5F5F5F5F5F5F5F5F5F5F5F5F5F5F5F5F5F5F5F5F5F5F5F5F5F5F5F5F5F5F5F5F5F5F5F5F5F5F5F5F5F5F5F5F5F5F5F5F5F5F5F5F5F5F5F5F5F5F5F5F5F5F5F5F5F5F5F5F5F5F5F5F5F5F5F5F5F5E2F5F5F5E2E2EFF5F5F5F5F5F5F5F5F5F5F5F5F5F5F5F5F5F5F5F5F5F5F5F5F5
310
F5F5F5F5F5F5F5F5F5F5F5F5F5F5F5F5F5F5F5F5F5F5F5F5F5F5F5F5F5F5F5F5F5F5F5F5F5F5F5F5F5F5F5F5F5F5F5F5F5F5F5F5F5F5F5F5F5F5F5F5F5F5F5F5F5F5F5F5F5F5F5F5F5F5F5F5F5F5F5F5F5F5F5F5F5F5F5F5F5F5F5F5F5F5F5F5F5F5F5F5F5F5F5F5F5F5F5F5F5F5F5F5F5F5F5F5F5F5F5F5F5F5F5F5F5F5F5
310
F5F5F5F5F5F5F5F5F5F5F5F5F5F5F5F5F5F5F5F5F5F5F5F5F5E2E2EFF5F5F5F5F5F5F5F5F5F5F5F5F5F5F5F5F5F5F5F5F5F5F5F5F5F5F5F5F5F5F5F5F5F5F5F5F5F5F5F5F5F5F5F5F5F5F5F5F5F5F5F5F5F5F5F5F5F5F5F5F5F5F5F5F5F5F5F5F5F5F5F5F5F5F5F5F5F5F5F5F5F5F5F5F5F5F5F5F5F5F5F5F5F5F5F5F5F5F5
310
F5F5F5F5F5F5F5F5F5F5F5F5F5F5F5F5F5F5F5F5F5F5F5F5F5F5F5F5F5F5F5F5F5F5F5F5F5F5F5F5F5F5F5F5F5F5F5F5F5F5F5F5F5F5F5F5F5F5F5F5F5F5F5F5F5F5F5F5F5F5F5F5F5F5F5F5F5F5E2E2EFF5F5F5F5F5F5F5F5F5F5F5F5F5F5F5F5F5F5F5F5F5F5F5F5F5F5F5F5F5F5F5F5F5F5F5F5F5F5F5F5F5F5F5F5F5F5
310
F5F5F5F5F5F5F5F5F5F5F5F5F5F5F5F5F5F5F5F5F5F5F5F5F5F5F5F5F5F5F5F5F5F5F5F5F5F5F5F5F5F5F5F5F5F5F5F5F5F5F5F5F5F5F5F5F5F5F5F5F5F5F5F5F5F5F5F5F5F5F5F5F5F5F5F5F5F5F5F5F5F5F5F5F5F5F5F5F5F5F5F5F5F5F5F5F5F5F5F5F5F5F5F5F5F5F5F5F5F5F5F5F5F5F5F5F5F5F5F5F5F5F5F5F5F5F5
310
F5F5F5F5E2E2EFF5F5F5F5F5F5F5F5F5F5F5F5F5F5F5F5F5F5F5F5F5F5F5F5F5F5F5F5F5F5F5F5F5F5F5F5F5F5F5F5F5F5F5F5F5F5F5F5F5F5F5F5F5F5F5F5F5F5F5F5F5F5F5F5F5F5F5F5F5F5F5F5F5F5F5F5F5F5F5F5F5F5F5F5F5F5F5F5F5F5F5F5F5F5F5F5F5F5F5F5F5F5F5F5F5F5F5F5F5F5F5F5F5F5F5F5F5F5F5F5
310
F5F5F5F5F5F5F5F5F5F5F5F5F5F5F5F5F5F5F5F5F5F5F5F5F5F5F5F5F5F5F5F5F5F5F5F5F5F5F5F5F5F5F5F5F5F5F5F5F5F5F5F5F5F5F5F5F5E2E2EFF5F5F5F5F5F5F5F5F5F5F5F5F5F5F5F5F5F5F5F5E2E2E2E2E2E2E2E2E2E2E2E2E2E2E2E2E2E2E2E2E2E2E2E2E2E2E2E2E2E2E2E2E2E2E2E2E2E2E2E2E2E2E2E2E2E2E2
310
E2E2E2E2E2E2E2E2E2E2E2E2E2E2E2E2E2E2E2E2E2E2E2E2E2E2E2E2E2E2E2E2E2E2E2E2E2E2E2E2E2E2E2E2E2E2E2E2E2E2E2E2E2E2E2E2E2E2E2E2E2E2E2E2E2E2E2E2E2E2E2E2E2E2E2E2E2E2E2E2E2E2E2E2E2E2E2E2E2E2F5F5F5F5F5F5F5F5F5F5F5F5F5F5F5F5F5F5F5F5E2E2EFF5F5F5F5F5F5F5F5F5F5F5F5F5F5
310
F5F5F5F5F5F5E2F5F5F5F5F5F5F5F5F5F5F5F5F5F5F5F5F5F5F5F5F5F5F5F5F5F5F5F5F5F5F5F5F5F5F5F5F5F5F5F5F5F5F5F5F5F5F5F5F5F5F5F5F5F5F5F5F5F5F5F5F5F5F5F5F5F5F5F5F5F5F5F5F5F5F5F5F5F5F5F5F5F5F5F5F5F5F5F5F5F5F5F5F5F5F5F5F5F5F5F5F5F5F5F5F5F5F5F5F5F5F5F5F5F5F5F5F5F5F5F5
310
F5F5F5F5F5F5F5F5F5F5F5F5F5F5F5E2F5F5F5F5F5F5F5F5F5F5F5F5F5F5F5F5F5F5F5F5E2E2EFF5F5F5F5F5F5F5F5F5F5F5F5F5F5F5F5F5F5F5F5E2F5F5F5F5F5F5F5F5F5F5F5F5F5F5F5F5F5F5F5F5F5F5F5F5F5F5F5F5F5F5F5F5F5F5F5F5F5F5F5F5F5F5F5F5F5F5F5F5F5F5F5F5F5F5F5F5F5F5F5F5F5F5F5F5F5F5F5
310
F5F5F5F5F5F5F5F5F5F5F5F5F5F5F5F5F5F5F5F5F5F5F5F5F5F5F5F5F5F5F5F5F5F5F5F5F5F5F5F5F5F5F5F5F5F5F5F5F5F5F5F5F5F5F5F5F5F5F5F5F5F5F5F5F5F5F5F5E2F5F5F5F5F5F5F5F5F5F5F5F5F5F5F5F5F5F5F5F5E2E2EFF5F5F5F5F5F5F5F5F5F5F5F5F5F5F5F5F5F5F5F5E2F5F5F5F5F5F5F5F5F5F5F5F5F5F5
310
F5F5F5F5F5F5F5F5F5F5F5F5F5F5F5F5F5F5F5F5F5F5F5F5F5F5F5F5F5F5F5F5F5F5F5F5F5F5F5F5F5F5F5F5F5F5F5F5F5F5F5F5F5F5F5F5F5F5F5F5F5F5F5F5F5F5F5F5F5F5F5F5F5F5F5F5F5F5F5F5F5F5F5F5F5F5F5F5F5F5F5F5F5F5F5F5F5F5F5F5F5F5F5F5F5F5F5F5F5F5F5F5F5F5F5F5F5F5F5F5F5E2F5F5F5F5F5
310
F5F5F5F5F5F5F5F5F5F5F5F5F5F5F5E2E2EFF5F5F5F5F5F5F5F5F5F5F5F5F5F5F5F5F5F5F5F5E2F5F5F5F5F5F5F5F5F5F5F5F5F5F5F5F5F5F5F5F5F5F5F5F5F5F5F5F5F5F5F5F5F5F5F5F5F5F5F5F5F5F5F5F5F5F5F5F5F5F5F5F5F5F5F5F5F5F5F5F5F5F5F5F5F5F5F5F5F5F5F5F5F5F5F5F5F5F5F5F5F5F5F5F5F5F5F5F5
310
F5F5F5F5F5F5F5F5F5F5F5F5F5F5F5F5F5F5F5F5F5F5F5F5F5F5F5F5F5F5F5F5F5F5F5F5F5F5F5F5F5F5F5F5F5F5F5E2F5F5F5F5F5F5F5F5F5F5F5F5F5F5F5F5F5F5F5F5E2E2EFF5F5F5E2F5F5F5F5F5F5F5F5F5F5F5F5F5F5F5F5E2F5F5F5F5F5F5F5F5F5F5F5F5F5F5F5F5F5F5F5F5F5F5F5F5F5F5F5F5F5F5F5F5F5F5F5
310
F5F5F5F5F5F5F5F5F5F5F5F5F5F5F5F5F5F5F5F5F5F5F5F5F5F5F5F5F5F5F5F5F5F5F5F5F5F5F5F5F5F5F5F5F5F5F5F5F5F5F5F5F5F5F5F5F5F5F5F5F5F5F5F5F5F5F5F5F5F5F5F5F5F5F5F5F5F5F5F5F5F5F5F5F5F5F5F5F5F5F5F5F5F5F5F5F5F5F5F5E2F5F5F5F5F5F5F5F5F5F5F5F5F5F5F5F5E2F5F5F5E2E2EFF5F5F5
310
E2F5F5F5F5F5F5F5F5F5F5F5F5F5F5F5F5E2F5F5F5F5F5F5F5F5F5F5F5F5F5F5F5F5F5F5F5F5F5F5F5F5F5F5F5F5F5F5F5F5F5F5F5F5F5F5F5F5F5F5F5F5F5F5F5F5F5F5F5F5F5F5F5F5F5F5F5F5F5F5F5F5F5F5F5F5F5F5F5F5F5F5F5F5F5F5F5F5F5F5F5F5F5F5F5F5F5F5F5F5F5F5F5F5F5F5F5F5F5F5F5F5F5F5F5F5F5
310
F5F5F5F5F5F5F5F5F5F5F5F5F5F5F5F5F5F5F5F5F5F5F5F5F5F5E2F5F5F5F5F5F5F5F5F5F5F5F5F5F5F5F5E2F5F5F5E2E2EFF5F5F5E2F5F5F5F5F5F5F5F5F5F5F5F5F5F5F5F5E2F5F5F5F5F5F5F5F5F5F5F5F5F5F5F5F5F5F5F5F5F5F5F5F5F5F5F5F5F5F5F5F5F5F5F5F5F5F5F5F5F5F5F5F5F5F5F5F5F5F5F5F5F5F5F5F5
310
F5F5F5F5F5F5F5F5F5F5F5F5F5F5F5F5F5F5F5F5F5F5F5F5F5F5F5F5F5F5F5F5F5F5F5F5F5F5F5F5F5F5F5F5F5F5F5F5F5F5F5F5F5F5F5F5F5F5F5F5F5F5F5F5F5F5F5F5F5F5F5F5F5F5F5F5F5F5F5E2F5F5F5F5F5F5F5F5F5F5F5F5F5F5F5F5E2F5F5F5E2E2EFF5F5F5E2F5F5F5F5F5F5F5F5F5F5F5F5F5F5F5F5E2F5F5F5
310
F5F5F5F5F5F5F5F5F5F5F5F5F5F5F5F5F5F5F5F5F5F5F5F5F5F5F5F5F5F5F5F5F5F5F5F5F5F5F5F5F5F5F5F5F5F5F5F5F5F5F5F5F5F5F5F5F5F5F5F5F5F5F5F5F5F5F5F5F5F5F5F5F5F5F5F5F5F5F5F5F5F5F5F5F5F5F5F5F5F5F5F5F5F5F5F5F5F5F5F5F5F5F5F5F5F5F5F5F5F5F5F5F5F5F5F5F5F5F5F5F5F5F5F5F5F5F5
310
F5F5F5F5F5E2F5F5F5F5F5F5F5F5F5F5F5F5F5F5F5F5E2F5F5F5E2E2EFF5F5F5E2F5F5F5F5F5F5F5F5F5F5F5F5F5F5F5F5E2F5F5F5F5F5F5F5F5F5F5F5F5F5F5F5F5F5F5F5F5F5F5F5F5F5F5F5F5F5F5F5F5F5F5F5F5F5F5F5F5F5F5F5F5F5F5F5F5F5F5F5F5F5F5F5F5F5F5F5F5F5F5F5F5F5F5F5F5F5F5F5F5F5F5F5F5F5
310
F5F5F5F5F5F5F5F5F5F5F5F5F5F5F5F5F5F5F5F5F5F5F5F5F5F5F5F5F5F5F5F5F5F5F5F5F5F5F5F5F5F5F5F5F5F5F5F5F5F5F5F5F5F5F5F5F5F5E2F5F5F5F5F5F5F5F5F5F5F5F5F5F5F5F5E2F5F5F5E2E2EFF5F5F5E2F5F5F5F5F5F5F5F5F5F5F5F5F5F5F5F5E2F5F5F5F5F5F5F5F5F5F5F5F5F5F5F5F5F5F5F5F5F5F5F5F5
310
F5F5F5F5F5F5F5F5F5F5F5F5F5F5F5F5F5F5F5F5F5F5F5F5F5F5F5F5F5F5F5F5F5F5F5F5F5F5F5F5F5F5F5F5F5F5F5F5F5F5F5F5F5F5F5F5F5F5F5F5F5F5F5F5F5F5F5F5F5F5F5F5F5F5F5F5F5F5F5F5F5F5F5F5F5F5F5F5F5F5F5F5F5F5F5F5F5F5F5F5F5F5F5F5F5F5F5F5F5F5F5E2F5F5F5F5F5F5F5F5F5F5F5F5F5F5F5
310
F5E2F5F5F5E2E2EFF5F5F5E2F5F5F5F5F5F5F5F5F5F5F5F5F5F5F5F5E2F5F5F5F5F5F5F5F5F5F5F5F5F5F5F5F5F5F5F5F5F5F5F5F5F5F5F5F5F5F5F5F5F5F5F5F5F5F5F5F5F5F5F5F5F5F5F5F5F5F5F5F5F5F5F5F5F5F5F5F5F5F5F5F5F5F5F5F5F5F5F5F5F5F5F5F5F5F5F5F5F5F5F5F5F5F5F5F5F5F5F5F5F5F5F5F5F5F5
310
F5F5F5F5F5F5F5F5F5F5F5F5F5F5F5F5F5F5F5F5F5F5F5F5F5F5F5F5F5F5F5F5F5F5F5F5F5E2F5F5F5F5F5F5F5F5F5F5F5F5F5F5F5F5E2F5F5F5E2E2EFF5F5F5E2F5F5F5F5F5F5F5F5F5F5F5F5F5F5F5F5E2F5F5F5F5F5F5F5F5F5F5F5F5F5F5F5F5F5F5F5F5F5F5F5F5F5F5F5F5F5F5F5F5F5F5F5F5F5F5F5F5F5F5F5F5F5
310
F5F5F5F5F5F5F5F5F5F5F5F5F5F5F5F5F5F5F5F5F5F5F5F5F5F5F5F5F5F5F5F5F5F5F5F5F5F5F5F5F5F5F5F5F5F5F5F5F5F5F5F5F5F5F5F5F5F5F5F5F5F5F5F5F5F5F5F5F5F5F5F5F5F5F5F5F5F5F5F5F5F5F5F5F5F5F5F5F5F5E2F5F5F5F5F5F5F5F5F5F5F5F5F5F5F5F5E2F5F5F5E2E2EFF5F5F5E2F5F5F5F5F5F5F5F5F5
310
F5F5F5F5F5F5F5E2F5F5F5F5F5F5F5F5F5F5F5F5F5F5F5F5F5F5F5F5F5F5F5F5F5F5F5F5F5F5F5F5F5F5F5F5F5F5F5F5F5F5F5F5F5F5F5F5F5F5F5F5F5F5F5F5F5F5F5F5F5F5F5F5F5F5F5F5F5F5F5F5F5F5F5F5F5F5F5F5F5F5F5F5F5F5F5F5F5F5F5F5F5F5F5F5F5F5F5F5F5F5F5F5F5F5F5F5F5F5F5F5F5F5F5F5F5F5F5
310
F5F5F5F5F5F5F5F5F5F5F5F5F5F5F5F5E2F5F5F5F5F5F5F5F5F5F5F5F5F5F5F5F5E2F5F5F5E2E2EFF5F5F5E2F5F5F5F5F5F5F5F5F5F5F5F5F5F5F5F5E2F5F5F5F5F5F5F5F5F5F5F5F5F5F5F5F5F5F5F5F5F5F5F5F5F5F5F5F5F5F5F5F5F5F5F5F5F5F5F5F5F5F5F5F5F5F5F5F5F5F5F5F5F5F5F5F5F5F5F5F5F5F5F5F5F5F5
310
F5F5F5F5F5F5F5F5F5F5F5F5F5F5F5F5F5F5F5F5F5F5F5F5F5F5F5F5F5F5F5F5F5F5F5F5F5F5F5F5F5F5F5F5F5F5F5F5F5F5F5F5F5F5F5F5F5F5F5F5F5F5F5F5F5F5F5F5F5E2F5F5F5F5F5F5F5F5F5F5F5F5F5F5F5F5E2F5F5F5E2E2EFF5F5F5E2F5F5F5F5F5F5F5F5F5F5F5F5F5F5F5F5E2F5F5F5F5F5F5F5F5F5F5F5F5F5
310
F5F5F5F5F5F5F5F5F5F5F5F5F5F5F5F5F5F5F5F5F5F5F5F5F5F5F5F5F5F5F5F5F5F5F5F5F5F5F5F5F5F5F5F5F5F5F5F5F5F5F5F5F5F5F5F5F5F5F5F5F5F5F5F5F5F5F5F5F5F5F5F5F5F5F5F5F5F5F5F5F5F5F5F5F5F5F5F5F5F5F5F5F5F5F5F5F5F5F5F5F5F5F5F5F5F5F5F5F5F5F5F5F5F5F5F5F5F5F5F5F5F5E2F5F5F5F5
310
F5F5F5F5F5F5F5F5F5F5F5F5E2F5F5F5E2E2EFF5F5F5E2F5F5F5F5F5F5F5F5F5F5F5F5F5F5F5F5E2F5F5F5F5F5F5F5F5F5F5F5F5F5F5F5F5F5F5F5F5F5F5F5F5F5F5F5F5F5F5F5F5F5F5F5F5F5F5F5F5F5F5F5F5F5F5F5F5F5F5F5F5F5F5F5F5F5F5F5F5F5F5F5F5F5F5F5F5F5F5F5F5F5F5F5F5F5F5F5F5F5F5F5F5F5F5F5
310
F5F5F5F5F5F5F5F5F5F5F5F5F5F5F5F5F5F5F5F5F5F5F5F5F5F5F5F5F5F5F5F5F5F5F5F5F5F5F5F5F5F5F5F5F5F5F5F5E2F5F5F5F5F5F5F5F5F5F5F5F5F5F5F5F5E2F5F5F5E2E2EFF5F5F5E2F5F5F5F5F5F5F5F5F5F5F5F5F5F5F5F5E2F5F5F5F5F5F5F5F5F5F5F5F5F5F5F5F5F5F5F5F5F5F5F5F5F5F5F5F5F5F5F5F5F5F5
310
F5F5F5F5F5F5F5F5F5F5F5F5F5F5F5F5F5F5F5F5F5F5F5F5F5F5F5F5F5F5F5F5F5F5F5F5F5F5F5F5F5F5F5F5F5F5F5F5F5F5F5F5F5F5F5F5F5F5F5F5F5F5F5F5F5F5F5F5F5F5F5F5F5F5F5F5F5F5F5F5F5F5F5F5F5F5F5F5F5F5F5F5F5F5F5F5F5F5F5F5F5E2F5F5F5F5F5F5F5F5F5F5F5F5F5F5F5F5E2F5F5F5E2E2EFF5F5
310
F5E2F5F5F5F5F5F5F5F5F5F5F5F5F5F5F5F5E2F5F5F5F5F5F5F5F5F5F5F5F5F5F5F5F5F5F5F5F5F5F5F5F5F5F5F5F5F5F5F5F5F5F5F5F5F5F5F5F5F5F5F5F5F5F5F5F5F5F5F5F5F5F5F5F5F5F5F5F5F5F5F5F5F5F5F5F5F5F5F5F5F5F5F5F5F5F5F5F5F5F5F5F5F5F5F5F5F5F5F5F5F5F5F5F5F5F5F5F5F5F5F5F5F5F5F5F5
310
F5F5F5F5F5F5F5F5F5F5F5F5F5F5F5F5F5F5F5F5F5F5F5F5F5F5F5E2F5F5F5F5F5F5F5F5F5F5F5F5F5F5F5F5E2F5F5F5E2E2EFF5F5F5E2F5F5F5F5F5F5F5F5F5F5F5F5F5F5F5F5E2F5F5F5F5F5F5F5F5F5F5F5F5F5F5F5F5F5F5F5F5F5F5F5F5F5F5F5F5F5F5F5F5F5F5F5F5F5F5F5F5F5F5F5F5F5F5F5F5F5F5F5F5F5F5F5
310
F5F5F5F5F5F5F5F5F5F5F5F5F5F5F5F5F5F5F5F5F5F5F5F5F5F5F5F5F5F5F5F5F5F5F5F5F5F5F5F5F5F5F5F5F5F5F5F5F5F5F5F5F5F5F5F5F5F5F5F5F5F5F5F5F5F5F5F5F5F5F5F5F5F5F5F5F5F5F5F5E2F5F5F5F5F5F5F5F5F5F5F5F5F5F5F5F5E2F5F5F5E2E2EFF5F5F5E2F5F5F5F5F5F5F5F5F5F5F5F5F5F5F5F5E2F5F5
310
F5F5F5F5F5F5F5F5F5F5F5F5F5F5F5F5F5F5F5F5F5F5F5F5F5F5F5F5F5F5F5F5F5F5F5F5F5F5F5F5F5F5F5F5F5F5F5F5F5F5F5F5F5F5F5F5F5F5F5F5F5F5F5F5F5F5F5F5F5F5F5F5F5F5F5F5F5F5F5F5F5F5F5F5F5F5F5F5F5F5F5F5F5F5F5F5F5F5F5F5F5F5F5F5F5F5F5F5F5F5F5F5F5F5F5F5F5F5F5F5F5F5F5F5F5F5F5
310
F5F5F5F5F5F5E2F5F5F5F5F5F5F5F5F5F5F5F5F5F5F5F5E2F5F5F5E2E2EFF5F5F5E2F5F5F5F5F5F5F5F5F5F5F5F5F5F5F5F5E2F5F5F5F5F5F5F5F5F5F5F5F5F5F5F5F5F5F5F5F5F5F5F5F5F5F5F5F5F5F5F5F5F5F5F5F5F5F5F5F5F5F5F5F5F5F5F5F5F5F5F5F5F5F5F5F5F5F5F5F5F5F5F5F5F5F5F5F5F5F5F5F5F5F5F5F5
310
F5F5F5F5F5F5F5F5F5F5F5F5F5F5F5F5F5F5F5F5F5F5F5F5F5F5F5F5F5F5F5F5F5F5F5F5F5F5F5F5F5F5F5F5F5F5F5F5F5F5F5F5F5F5F5F5F5F5F5E2F5F5F5F5F5F5F5F5F5F5F5F5F5F5F5F5E2F5F5F5E2E2EFF5F5F5F5F5F5F5F5F5F5F5F5F5F5F5F5F5F5F5F5E2F5F5F5F5F5F5F5F5F5F5F5F5F5F5F5F5F5F5F5F5F5F5F5
310
F5F5F5F5F5F5F5F5F5F5F5F5F5F5F5F5F5F5F5F5F5F5F5F5F5F5F5F5F5F5F5F5F5F5F5F5F5F5F5F5F5F5F5F5F5F5F5F5F5F5F5F5F5F5F5F5F5F5F5F5F5F5F5F5F5F5F5F5F5F5F5F5F5F5F5F5F5F5F5F5F5F5F5F5F5F5F5F5F5F5F5F5F5F5F5F5F5F5F5F5F5F5F5F5F5F5F5F5F5F5F5F5E2F5F5F5F5F5F5F5F5F5F5F5F5F5F5
310
F5F5F5F5F5F5E2E2EFF5F5F5F5F5F5F5F5F5F5F5F5F5F5F5F5F5F5F5F5E2F5F5F5F5F5F5F5F5F5F5F5F5F5F5F5F5F5F5F5F5F5F5F5F5F5F5F5F5F5F5F5F5F5F5F5F5F5F5F5F5F5F5F5F5F5F5F5F5F5F5F5F5F5F5F5F5F5F5F5F5F5F5F5F5F5F5F5F5F5F5F5F5F5F5F5F5F5F5F5F5F5F5F5F5F5F5F5F5F5F5F5F5F5F5F5F5F5
310
F5F5F5F5F5F5F5F5F5F5F5F5F5F5F5F5F5F5F5F5F5F5F5F5F5F5F5F5F5F5F5F5F5F5F5F5F5F5E2F5F5F5F5F5F5F5F5F5F5F5F5F5F5F5F5F5F5F5F5E2E2EFF5F5F5F5F5F5F5F5F5F5F5F5F5F5F5F5F5F5F5F5E2F5F5F5F5F5F5F5F5F5F5F5F5F5F5F5F5F5F5F5F5F5F5F5F5F5F5F5F5F5F5F5F5F5F5F5F5F5F5F5F5F5F5F5F5
310
F5F5F5F5F5F5F5F5F5F5F5F5F5F5F5F5F5F5F5F5F5F5F5F5F5F5F5F5F5F5F5F5F5F5F5F5F5F5F5F5F5F5F5F5F5F5F5F5F5F5F5F5F5F5F5F5F5F5F5F5F5F5F5F5F5F5F5F5F5F5F5F5F5F5F5F5F5F5F5F5F5F5F5F5F5F5F5F5F5F5F5E2F5F5F5F5F5F5F5F5F5F5F5F5F5F5F5F5F5F5F5F5E2E2EFF5F5F5F5F5F5F5F5F5F5F5F5
310
F5F5F5F5F5F5F5F5E2F5F5F5F5F5F5F5F5F5F5F5F5F5F5F5F5F5F5F5F5F5F5F5F5F5F5F5F5F5F5F5F5F5F5F5F5F5F5F5F5F5F5F5F5F5F5F5F5F5F5F5F5F5F5F5F5F5F5F5F5F5F5F5F5F5F5F5F5F5F5F5F5F5F5F5F5F5F5F5F5F5F5F5F5F5F5F5F5F5F5F5F5F5F5F5F5F5F5F5F5F5F5F5F5F5F5F5F5F5F5F5F5F5F5F5F5F5F5
310
F5F5F5F5F5F5F5F5F5F5F5F5F5F5F5F5F5E2F5F5F5F5F5F5F5F5F5F5F5F5F5F5F5F5F5F5F5F5E2E2EFF5F5F5F5F5F5F5F5F5F5F5F5F5F5F5F5F5F5F5F5E2F5F5F5F5F5F5F5F5F5F5F5F5F5F5F5F5F5F5F5F5F5F5F5F5F5F5F5F5F5F5F5F5F5F5F5F5F5F5F5F5F5F5F5F5F5F5F5F5F5F5F5F5F5F5F5F5F5F5F5F5F5F5F5F5F5
310
F5F5F5F5F5F5F5F5F5F5F5F5F5F5F5F5F5F5F5F5F5F5F5F5F5F5F5F5F5F5F5F5F5F5F5F5F5F5F5F5F5F5F5F5F5F5F5F5F5F5F5F5F5F5F5F5F5F5F5F5F5F5F5F5F5F5F5F5F5F5E2F5F5F5F5F5F5F5F5F5F5F5F5F5F5F5F5F5F5F5F5E2E2EFF5F5F5F5F5F5F5F5F5F5F5F5F5F5F5F5F5F5F5F5E2F5F5F5F5F5F5F5F5F5F5F5F5
310
F5F5F5F5F5F5F5F5F5F5F5F5F5F5F5F5F5F5F5F5F5F5F5F5F5F5F5F5F5F5F5F5F5F5F5F5F5F5F5F5F5F5F5F5F5F5F5F5F5F5F5F5F5F5F5F5F5F5F5F5F5F5F5F5F5F5F5F5F5F5F5F5F5F5F5F5F5F5F5F5F5F5F5F5F5F5F5F5F5F5F5F5F5F5F5F5F5F5F5F5F5F5F5F5F5F5F5F5F5F5F5F5F5F5F5F5F5F5F5F5F5F5F5E2F5F5F5
310
F5F5F5F5F5F5F5F5F5F5F5F5F5F5F5F5F5E2E2EFF5F5F5F5F5F5F5F5F5F5F5F5F5F5F5F5F5F5F5F5E2F5F5F5F5F5F5F5F5F5F5F5F5F5F5F5F5F5F5F5F5F5F5F5F5F5F5F5F5F5F5F5F5F5F5F5F5F5F5F5F5F5F5F5F5F5F5F5F5F5F5F5F5F5F5F5F5F5F5F5F5F5F5F5F5F5F5F5F5F5F5F5F5F5F5F5F5F5F5F5F5F5F5F5F5F5F5
310
F5F5F5F5F5F5F5F5F5F5F5F5F5F5F5F5F5F5F5F5F5F5F5F5F5F5F5F5F5F5F5F5F5F5F5F5F5F5F5F5F5F5F5F5F5F5F5F5F5E2F5F5F5F5F5F5F5F5F5F5F5F5F5F5F5F5F5F5F5F5E2E2EFF5F5F5F5F5F5F5F5F5F5F5F5F5F5F5F5F5F5F5F5E2F5F5F5F5F5F5F5F5F5F5F5F5F5F5F5F5F5F5F5F5F5F5F5F5F5F5F5F5F5F5F5F5F5
310
F5F5F5F5F5F5F5F5F5F5F5F5F5F5F5F5F5F5F5F5F5F5F5F5F5F5F5F5F5F5F5F5F5F5F5F5F5F5F5F5F5F5F5F5F5F5F5F5F5F5F5F5F5F5F5F5F5F5F5F5F5F5F5F5F5F5F5F5F5F5F5F5F5F5F5F5F5F5F5F5F5F5F5F5F5F5F5F5F5F5F5F5F5F5F5F5F5F5F5F5F5F5E2F5F5F5F5F5F5F5F5F5F5F5F5F5F5F5F5F5F5F5F5E2E2EFF5
310
F5F5F5F5F5F5F5F5F5F5F5F5F5F5F5F5F5F5F5E2F5F5F5F5F5F5F5F5F5F5F5F5F5F5F5F5F5F5F5F5F5F5F5F5F5F5F5F5F5F5F5F5F5F5F5F5F5F5F5F5F5F5F5F5F5F5F5F5F5F5F5F5F5F5F5F5F5F5F5F5F5F5F5F5F5F5F5F5F5F5F5F5F5F5F5F5F5F5F5F5F5F5F5F5F5F5F5F5F5F5F5F5F5F5F5F5F5F5F5F5F5F5F5F5F5F5F5
310
F5F5F5F5F5F5F5F5F5F5F5F5F5F5F5F5F5F5F5F5F5F5F5F5F5F5F5F5E2F5F5F5F5F5F5F5F5F5F5F5F5F5F5F5F5F5F5F5F5E2E2EFF5F5F5E2F5F5F5F5F5F5F5F5F5F5F5F5F5F5F5F5E2F5F5F5F5F5F5F5F5F5F5F5F5F5F5F5F5F5F5F5F5F5F5F5F5F5F5F5F5F5F5F5F5F5F5F5F5F5F5F5F5F5F5F5F5F5F5F5F5F5F5F5F5F5F5
310
F5F5F5F5F5F5F5F5F5F5F5F5F5F5F5F5F5F5F5F5F5F5F5F5F5F5F5F5F5F5F5F5F5F5F5F5F5F5F5F5F5F5F5F5F5F5F5F5F5F5F5F5F5F5F5F5F5F5F5F5F5F5F5F5F5F5F5F5F5F5F5F5F5F5F5F5F5F5F5F5F5E2F5F5F5F5F5F5F5F5F5F5F5F5F5F5F5F5E2F5F5F5E2E2EFF5F5F5E2F5F5F5F5F5F5F5F5F5F5F5F5F5F5F5F5E2F5
310
F5F5F5F5F5F5F5F5F5F5F5F5F5F5F5F5F5F5F5F5F5F5F5F5F5F5F5F5F5F5F5F5F5F5F5F5F5F5F5F5F5F5F5F5F5F5F5F5F5F5F5F5F5F5F5F5F5F5F5F5F5F5F5F5F5F5F5F5F5F5F5F5F5F5F5F5F5F5F5F5F5F5F5F5F5F5F5F5F5F5F5F5F5F5F5F5F5F5F5F5F5F5F5F5F5F5F5F5F5F5F5F5F5F5F5F5F5F5F5F5F5F5F5F5F5F5F5
310
F5F5F5F5F5F5F5E2F5F5F5F5F5F5F5F5F5F5F5F5F5F5F5F5E2F5F5F5E2E2EFF5F5F5E2F5F5F5F5F5F5F5F5F5F5F5F5F5F5F5F5E2F5F5F5F5F5F5F5F5F5F5F5F5F5F5F5F5F5F5F5F5F5F5F5F5F5F5F5F5F5F5F5F5F5F5F5F5F5F5F5F5F5F5F5F5F5F5F5F5F5F5F5F5F5F5F5F5F5F5F5F5F5F5F5F5F5F5F5F5F5F5F5F5F5F5F5
310
F5F5F5F5F5F5F5F5F5F5F5F5F5F5F5F5F5F5F5F5F5F5F5F5F5F5F5F5F5F5F5F5F5F5F5F5F5F5F5F5F5F5F5F5F5F5F5F5F5F5F5F5F5F5F5F5F5F5F5F5E2F5F5F5F5F5F5F5F5F5F5F5F5F5F5F5F5E2F5F5F5E2E2EFF5F5F5E2F5F5F5F5F5F5F5F5F5F5F5F5F5F5F5F5E2F5F5F5F5F5F5F5F5F5F5F5F5F5F5F5F5F5F5F5F5F5F5
310
F5F5F5F5F5F5F5F5F5F5F5F5F5F5F5F5F5F5F5F5F5F5F5F5F5F5F5F5F5F5F5F5F5F5F5F5F5F5F5F5F5F5F5F5F5F5F5F5F5F5F5F5F5F5F5F5F5F5F5F5F5F5F5F5F5F5F5F5F5F5F5F5F5F5F5F5F5F5F5F5F5F5F5F5F5F5F5F5F5F5F5F5F5F5F5F5F5F5F5F5F5F5F5F5F5F5F5F5F5F5F5F5F5E2F5F5F5F5F5F5F5F5F5F5F5F5F5
310
F5F5F5E2F5F5F5E2E2EFF5F5F5E2F5F5F5F5F5F5F5F5F5F5F5F5F5F5F5F5E2F5F5F5F5F5F5F5F5F5F5F5F5F5F5F5F5F5F5F5F5F5F5F5F5F5F5F5F5F5F5F5F5F5F5F5F5F5F5F5F5F5F5F5F5F5F5F5F5F5F5F5F5F5F5F5F5F5F5F5F5F5F5F5F5F5F5F5F5F5F5F5F5F5F5F5F5F5F5F5F5F5F5F5F5F5F5F5F5F5F5F5F5F5F5F5F5
310
F5F5F5F5F5F5F5F5F5F5F5F5F5F5F5F5F5F5F5F5F5F5F5F5F5F5F5F5F5F5F5F5F5F5F5F5F5F5F5E2F5F5F5F5F5F5F5F5F5F5F5F5F5F5F5F5E2F5F5F5E2E2EFF5F5F5E2F5F5F5F5F5F5F5F5F5F5F5F5F5F5F5F5E2F5F5F5F5F5F5F5F5F5F5F5F5F5F5F5F5F5F5F5F5F5F5F5F5F5F5F5F5F5F5F5F5F5F5F5F5F5F5F5F5F5F5F5
310
F5F5F5F5F5F5F5F5F5F5F5F5F5F5F5F5F5F5F5F5F5F5F5F5F5F5F5F5F5F5F5F5F5F5F5F5F5F5F5F5F5F5F5F5F5F5F5F5F5F5F5F5F5F5F5F5F5F5F5F5F5F5F5F5F5F5F5F5F5F5F5F5F5F5F5F5F5F5F5F5F5F5F5F5F5F5F5F5F5F5F5F5E2F5F5F5F5F5F5F5F5F5F5F5F5F5F5F5F5E2F5F5F5E2E2EFF5F5F5E2F5F5F5F5F5F5F5
310
F5F5F5F5F5F5F5F5F5E2F5F5F5F5F5F5F5F5F5F5F5F5F5F5F5F5F5F5F5F5F5F5F5F5F5F5F5F5F5F5F5F5F5F5F5F5F5F5F5F5F5F5F5F5F5F5F5F5F5F5F5F5F5F5F5F5F5F5F5F5F5F5F5F5F5F5F5F5F5F5F5F5F5F5F5F5F5F5F5F5F5F5F5F5F5F5F5F5F5F5F5F5F5F5F5F5F5F5F5F5F5F5F5F5F5F5F5F5F5F5F5F5F5F5F5F5F5
310
F5F5F5F5F5F5F5F5F5F5F5F5F5F5F5F5F5F5E2F5F5F5F5F5F5F5F5F5F5F5F5F5F5F5F5E2F5F5F5E2E2EFF5F5F5E2F5F5F5F5F5F5F5F5F5F5F5F5F5F5F5F5E2F5F5F5F5F5F5F5F5F5F5F5F5F5F5F5F5F5F5F5F5F5F5F5F5F5F5F5F5F5F5F5F5F5F5F5F5F5F5F5F5F5F5F5F5F5F5F5F5F5F5F5F5F5F5F5F5F5F5F5F5F5F5F5F5
310
F5F5F5F5F5F5F5F5F5F5F5F5F5F5F5F5F5F5F5F5F5F5F5F5F5F5F5F5F5F5F5F5F5F5F5F5F5F5F5F5F5F5F5F5F5F5F5F5F5F5F5F5F5F5F5F5F5F5F5F5F5F5F5F5F5F5F5F5F5F5F5E2F5F5F5F5F5F5F5F5F5F5F5F5F5F5F5F5E2F5F5F5E2E2EFF5F5F5E2F5F5F5F5F5F5F5F5F5F5F5F5F5F5F5F5E2F5F5F5F5F5F5F5F5F5F5F5
310
F5F5F5F5F5F5F5F5F5F5F5F5F5F5F5F5F5F5F5F5F5F5F5F5F5F5F5F5F5F5F5F5F5F5F5F5F5F5F5F5F5F5F5F5F5F5F5F5F5F5F5F5F5F5F5F5F5F5F5F5F5F5F5F5F5F5F5F5F5F5F5F5F5F5F5F5F5F5F5F5F5F5F5F5F5F5F5F5F5F5F5F5F5F5F5F5F5F5F5F5F5F5F5F5F5F5F5F5F5F5F5F5F5F5F5F5F5F5F5F5F5F5F5F5E2F5F5
310
F5F5F5F5F5F5F5F5F5F5F5F5F5F5E2F5F5F5E2E2EFF5F5F5E2F5F5F5F5F5F5F5F5F5F5F5F5F5F5F5F5E2F5F5F5F5F5F5F5F5F5F5F5F5F5F5F5F5F5F5F5F5F5F5F5F5F5F5F5F5F5F5F5F5F5F5F5F5F5F5F5F5F5F5F5F5F5F5F5F5F5F5F5F5F5F5F5F5F5F5F5F5F5F5F5F5F5F5F5F5F5F5F5F5F5F5F5F5F5F5F5F5F5F5F5F5F5
310
F5F5F5F5F5F5F5F5F5F5F5F5F5F5F5F5F5F5F5F5F5F5F5F5F5F5F5F5F5F5F5F5F5F5F5F5F5F5F5F5F5F5F5F5F5F5F5F5F5F5E2F5F5F5F5F5F5F5F5F5F5F5F5F5F5F5F5E2F5F5F5E2E2EFF5F5F5E2F5F5F5F5F5F5F5F5F5F5F5F5F5F5F5F5E2F5F5F5F5F5F5F5F5F5F5F5F5F5F5F5F5F5F5F5F5F5F5F5F5F5F5F5F5F5F5F5F5
310
F5F5F5F5F5F5F5F5F5F5F5F5F5F5F5F5F5F5F5F5F5F5F5F5F5F5F5F5F5F5F5F5F5F5F5F5F5F5F5F5F5F5F5F5F5F5F5F5F5F5F5F5F5F5F5F5F5F5F5F5F5F5F5F5F5F5F5F5F5F5F5F5F5F5F5F5F5F5F5F5F5F5F5F5F5F5F5F5F5F5F5F5F5F5F5F5F5F5F5F5F5F5F5E2F5F5F5F5F5F5F5F5F5F5F5F5F5F5F5F5E2F5F5F5E2E2EF
310
F5F5F5E2F5F5F5F5F5F5F5F5F5F5F5F5F5F5F5F5E2F5F5F5F5F5F5F5F5F5F5F5F5F5F5F5F5F5F5F5F5F5F5F5F5F5F5F5F5F5F5F5F5F5F5F5F5F5F5F5F5F5F5F5F5F5F5F5F5F5F5F5F5F5F5F5F5F5F5F5F5F5F5F5F5F5F5F5F5F5F5F5F5F5F5F5F5F5F5F5F5F5F5F5F5F5F5F5F5F5F5F5F5F5F5F5F5F5F5F5F5F5F5F5F5F5F5
310
F5F5F5F5F5F5F5F5F5F5F5F5F5F5F5F5F5F5F5F5F5F5F5F5F5F5F5F5F5E2F5F5F5F5F5F5F5F5F5F5F5F5F5F5F5F5E2F5F5F5E2E2EFF5F5F5E2F5F5F5F5F5F5F5F5F5F5F5F5F5F5F5F5E2F5F5F5F5F5F5F5F5F5F5F5F5F5F5F5F5F5F5F5F5F5F5F5F5F5F5F5F5F5F5F5F5F5F5F5F5F5F5F5F5F5F5F5F5F5F5F5F5F5F5F5F5F5
310
F5F5F5F5F5F5F5F5F5F5F5F5F5F5F5F5F5F5F5F5F5F5F5F5F5F5F5F5F5F5F5F5F5F5F5F5F5F5F5F5F5F5F5F5F5F5F5F5F5F5F5F5F5F5F5F5F5F5F5F5F5F5F5F5F5F5F5F5F5F5F5F5F5F5F5F5F5F5F5F5F5F5E2F5F5F5F5F5F5F5F5F5F5F5F5F5F5F5F5E2F5F5F5E2E2EFF5F5F5E2F5F5F5F5F5F5F5F5F5F5F5F5F5F5F5F5E2
310
F5F5F5F5F5F5F5F5F5F5F5F5F5F5F5F5F5F5F5F5F5F5F5F5F5F5F5F5F5F5F5F5F5F5F5F5F5F5F5F5F5F5F5F5F5F5F5F5F5F5F5F5F5F5F5F5F5F5F5F5F5F5F5F5F5F5F5F5F5F5F5F5F5F5F5F5F5F5F5F5F5F5F5F5F5F5F5F5F5F5F5F5F5F5F5F5F5F5F5F5F5F5F5F5F5F5F5F5F5F5F5F5F5F5F5F5F5F5F5F5F5F5F5F5F5F5F5
310
F5F5F5F5F5F5F5F5E2F5F5F5F5F5F5F5F5F5F5F5F5F5F5F5F5E2F5F5F5E2E2EFF5F5F5E2F5F5F5F5F5F5F5F5F5F5F5F5F5F5F5F5E2F5F5F5F5F5F5F5F5F5F5F5F5F5F5F5F5F5F5F5F5F5F5F5F5F5F5F5F5F5F5F5F5F5F5F5F5F5F5F5F5F5F5F5F5F5F5F5F5F5F5F5F5F5F5F5F5F5F5F5F5F5F5F5F5F5F5F5F5F5F5F5F5F5F5
310
F5F5F5F5F5F5F5F5F5F5F5F5F5F5F5F5F5F5F5F5F5F5F5F5F5F5F5F5F5F5F5F5F5F5F5F5F5F5F5F5F5F5F5F5F5F5F5F5F5F5F5F5F5F5F5F5F5F5F5F5F5E2F5F5F5F5F5F5F5F5F5F5F5F5F5F5F5F5E2F5F5F5E2E2EFF5F5F5E2F5F5F5F5F5F5F5F5F5F5F5F5F5F5F5F5E2F5F5F5F5F5F5F5F5F5F5F5F5F5F5F5F5F5F5F5F5F5
310
F5F5F5F5F5F5F5F5F5F5F5F5F5F5F5F5F5F5F5F5F5F5F5F5F5F5F5F5F5F5F5F5F5F5F5F5F5F5F5F5F5F5F5F5F5F5F5F5F5F5F5F5F5F5F5F5F5F5F5F5F5F5F5F5F5F5F5F5F5F5F5F5F5F5F5F5F5F5F5F5F5F5F5F5F5F5F5F5F5F5F5F5F5F5F5F5F5F5F5F5F5F5F5F5F5F5F5F5F5F5F5F5F5F5E2F5F5F5F5F5F5F5F5F5F5F5F5
310
F5F5F5F5E2F5F5F5E2E2EFF5F5F5E2F5F5F5F5F5F5F5F5F5F5F5F5F5F5F5F5E2F5F5F5F5F5F5F5F5F5F5F5F5F5F5F5F5F5F5F5F5F5F5F5F5F5F5F5F5F5F5F5F5F5F5F5F5F5F5F5F5F5F5F5F5F5F5F5F5F5F5F5F5F5F5F5F5F5F5F5F5F5F5F5F5F5F5F5F5F5F5F5F5F5F5F5F5F5F5F5F5F5F5F5F5F5F5F5F5F5F5F5F5F5F5F5
310
F5F5F5F5F5F5F5F5F5F5F5F5F5F5F5F5F5F5F5F5F5F5F5F5F5F5F5F5F5F5F5F5F5F5F5F5F5F5F5F5E2F5F5F5F5F5F5F5F5F5F5F5F5F5F5F5F5E2F5F5F5E2E2EFF5F5F5F5F5F5F5F5F5F5F5F5F5F5F5F5F5F5F5F5E2F5F5F5F5F5F5F5F5F5F5F5F5F5F5F5F5F5F5F5F5F5F5F5F5F5F5F5F5F5F5F5F5F5F5F5F5F5F5F5F5F5F5
310
F5F5F5F5F5F5F5F5F5F5F5F5F5F5F5F5F5F5F5F5F5F5F5F5F5F5F5F5F5F5F5F5F5F5F5F5F5F5F5F5F5F5F5F5F5F5F5F5F5F5F5F5F5F5F5F5F5F5F5F5F5F5F5F5F5F5F5F5F5F5F5F5F5F5F5F5F5F5F5F5F5F5F5F5F5F5F5F5F5F5F5F5F5E2F5F5F5F5F5F5F5F5F5F5F5F5F5F5F5F5F5F5F5F5E2E2EFF5F5F5F5F5F5F5F5F5F5
310
F5F5F5F5F5F5F5F5F5F5E2F5F5F5F5F5F5F5F5F5F5F5F5F5F5F5F5F5F5F5F5F5F5F5F5F5F5F5F5F5F5F5F5F5F5F5F5F5F5F5F5F5F5F5F5F5F5F5F5F5F5F5F5F5F5F5F5F5F5F5F5F5F5F5F5F5F5F5F5F5F5F5F5F5F5F5F5F5F5F5F5F5F5F5F5F5F5F5F5F5F5F5F5F5F5F5F5F5F5F5F5F5F5F5F5F5F5F5F5F5F5F5F5F5F5F5F5
310
F5F5F5F5F5F5F5F5F5F5F5F5F5F5F5F5F5F5F5E2F5F5F5F5F5F5F5F5F5F5F5F5F5F5F5F5F5F5F5F5E2E2EFF5F5F5F5F5F5F5F5F5F5F5F5F5F5F5F5F5F5F5F5E2F5F5F5F5F5F5F5F5F5F5F5F5F5F5F5F5F5F5F5F5F5F5F5F5F5F5F5F5F5F5F5F5F5F5F5F5F5F5F5F5F5F5F5F5F5F5F5F5F5F5F5F5F5F5F5F5F5F5F5F5F5F5F5
310
F5F5F5F5F5F5F5F5F5F5F5F5F5F5F5F5F5F5F5F5F5F5F5F5F5F5F5F5F5F5F5F5F5F5F5F5F5F5F5F5F5F5F5F5F5F5F5F5F5F5F5F5F5F5F5F5F5F5F5F5F5F5F5F5F5F5F5F5F5F5F5F5E2F5F5F5F5F5F5F5F5F5F5F5F5F5F5F5F5F5F5F5F5E2E2EFF5F5F5F5F5F5F5F5F5F5F5F5F5F5F5F5F5F5F5F5E2F5F5F5F5F5F5F5F5F5F5
310
F5F5F5F5F5F5F5F5F5F5F5F5F5F5F5F5F5F5F5F5F5F5F5F5F5F5F5F5F5F5F5F5F5F5F5F5F5F5F5F5F5F5F5F5F5F5F5F5F5F5F5F5F5F5F5F5F5F5F5F5F5F5F5F5F5F5F5F5F5F5F5F5F5F5F5F5F5F5F5F5F5F5F5F5F5F5F5F5F5F5F5F5F5F5F5F5F5F5F5F5F5F5F5F5F5F5F5F5F5F5F5F5F5F5F5F5F5F5F5F5F5F5F5F5F5E2F5
310
F5F5F5F5F5F5F5F5F5F5F5F5F5F5F5F5F5F5F5E2E2EFF5F5F5F5F5F5F5F5F5F5F5F5F5F5F5F5F5F5F5F5E2F5F5F5F5F5F5F5F5F5F5F5F5F5F5F5F5F5F5F5F5F5F5F5F5F5F5F5F5F5F5F5F5F5F5F5F5F5F5F5F5F5F5F5F5F5F5F5F5F5F5F5F5F5F5F5F5F5F5F5F5F5F5F5F5F5F5F5F5F5F5F5F5F5F5F5F5F5F5F5F5F5F5F5F5
310
F5F5F5F5F5F5F5F5F5F5F5F5F5F5F5F5F5F5F5F5F5F5F5F5F5F5F5F5F5F5F5F5F5F5F5F5F5F5F5F5F5F5F5F5F5F5F5F5F5F5F5E2F5F5F5F5F5F5F5F5F5F5F5F5F5F5F5F5F5F5F5F5E2E2EFF5F5F5F5F5F5F5F5F5F5F5F5F5F5F5F5F5F5F5F5E2F5F5F5F5F5F5F5F5F5F5F5F5F5F5F5F5F5F5F5F5F5F5F5F5F5F5F5F5F5F5F5
310
F5F5F5F5F5F5F5F5F5F5F5F5F5F5F5F5F5F5F5F5F5F5F5F5F5F5F5F5F5F5F5F5F5F5F5F5F5F5F5F5F5F5F5F5F5F5F5F5F5F5F5F5F5F5F5F5F5F5F5F5F5F5F5F5F5F5F5F5F5F5F5F5F5F5F5F5F5F5F5F5F5F5F5F5F5F5F5F5F5F5F5F5F5F5F5F5F5F5F5F5F5F5F5F5E2F5F5F5F5F5F5F5F5F5F5F5F5F5F5F5F5F5F5F5F5E2E2
310
EFF5F5F5F5F5F5F5F5F5F5F5F5F5F5F5F5F5F5F5F5E2F5F5F5F5F5F5F5F5F5F5F5F5F5F5F5F5F5F5F5F5F5F5F5F5F5F5F5F5F5F5F5F5F5F5F5F5F5F5F5F5F5F5F5F5F5F5F5F5F5F5F5F5F5F5F5F5F5F5F5F5F5F5F5F5F5F5F5F5F5F5F5F5F5F5F5F5F5F5F5F5F5F5F5F5F5F5F5F5F5F5F5F5F5F5F5F5F5F5F5F5F5F5F5F5F5
310
F5F5F5F5F5F5F5F5F5F5F5F5F5F5F5F5F5F5F5F5F5F5F5F5F5F5F5F5F5F5E2F5F5F5F5F5F5F5F5F5F5F5F5F5F5F5F5F5F5F5F5E2E2EFF5F5F5F5F5F5F5F5F5F5F5F5F5F5F5F5F5F5F5F5E2F5F5F5F5F5F5F5F5F5F5F5F5F5F5F5F5F5F5F5F5F5F5F5F5F5F5F5F5F5F5F5F5F5F5F5F5F5F5F5F5F5F5F5F5F5F5F5F5F5F5F5F5
310
F5F5F5F5F5F5F5F5F5F5F5F5F5F5F5F5F5F5F5F5F5F5F5F5F5F5F5F5F5F5F5F5F5F5F5F5F5F5F5F5F5F5F5F5F5F5F5F5F5F5F5F5F5F5F5F5F5F5F5F5F5F5F5F5F5F5F5F5F5F5F5F5F5F5F5F5F5F5F5F5F5F5F5E2F5F5F5F5F5F5F5F5F5F5F5F5F5F5F5F5F5F5F5F5E2E2EFF5F5F5F5F5F5F5F5F5F5F5F5F5F5F5F5F5F5F5F5
310
E2F5F5F5F5F5F5F5F5F5F5F5F5F5F5F5F5F5F5F5F5F5F5F5F5F5F5F5F5F5F5F5F5F5F5F5F5F5F5F5F5F5F5F5F5F5F5F5F5F5F5F5F5F5F5F5F5F5F5F5F5F5F5F5F5F5F5F5F5F5F5F5F5F5F5F5F5F5F5F5F5F5F5F5F5F5F5F5F5F5F5F5F5F5F5F5F5F5F5F5F5F5F5F5F5F5F5F5F5F5F5F5F5F5F5F5F5F5F5F5F5F5F5F5F5F5F5
310
F5F5F5F5F5F5F5F5F5E2F5F5F5F5F5F5F5F5F5F5F5F5F5F5F5F5F5F5F5F5E2E2EFF5F5F5E2F5F5F5F5F5F5F5F5F5F5F5F5F5F5F5F5E2F5F5F5F5F5F5F5F5F5F5F5F5F5F5F5F5F5F5F5F5F5F5F5F5F5F5F5F5F5F5F5F5F5F5F5F5F5F5F5F5F5F5F5F5F5F5F5F5F5F5F5F5F5F5F5F5F5F5F5F5F5F5F5F5F5F5F5F5F5F5F5F5F5
310
F5F5F5F5F5F5F5F5F5F5F5F5F5F5F5F5F5F5F5F5F5F5F5F5F5F5F5F5F5F5F5F5F5F5F5F5F5F5F5F5F5F5F5F5F5F5F5F5F5F5F5F5F5F5F5F5F5F5F5F5F5F5E2F5F5F5F5F5F5F5F5F5F5F5F5F5F5F5F5E2F5F5F5E2E2EFF5F5F5E2F5F5F5F5F5F5F5F5F5F5F5F5F5F5F5F5E2F5F5F5F5F5F5F5F5F5F5F5F5F5F5F5F5F5F5F5F5
310
F5F5F5F5F5F5F5F5F5F5F5F5F5F5F5F5F5F5F5F5F5F5F5F5F5F5F5F5F5F5F5F5F5F5F5F5F5F5F5F5F5F5F5F5F5F5F5F5F5F5F5F5F5F5F5F5F5F5F5F5F5F5F5F5F5F5F5F5F5F5F5F5F5F5F5F5F5F5F5F5F5F5F5F5F5F5F5F5F5F5F5F5F5F5F5F5F5F5F5F5F5F5F5F5F5F5F5F5F5F5F5F5F5F5F5E2F5F5F5F5F5F5F5F5F5F5F5
310
F5F5F5F5F5E2F5F5F5E2E2EFF5F5F5E2F5F5F5F5F5F5F5F5F5F5F5F5F5F5F5F5E2F5F5F5F5F5F5F5F5F5F5F5F5F5F5F5F5F5F5F5F5F5F5F5F5F5F5F5F5F5F5F5F5F5F5F5F5F5F5F5F5F5F5F5F5F5F5F5F5F5F5F5F5F5F5F5F5F5F5F5F5F5F5F5F5F5F5F5F5F5F5F5F5F5F5F5F5F5F5F5F5F5F5F5F5F5F5F5F5F5F5F5F5F5F5
310
F5F5F5F5F5F5F5F5F5F5F5F5F5F5F5F5F5F5F5F5F5F5F5F5F5F5F5F5F5F5F5F5F5F5F5F5F5F5F5F5F5E2F5F5F5F5F5F5F5F5F5F5F5F5F5F5F5F5E2F5F5F5E2E2EFF5F5F5E2F5F5F5F5F5F5F5F5F5F5F5F5F5F5F5F5E2F5F5F5F5F5F5F5F5F5F5F5F5F5F5F5F5F5F5F5F5F5F5F5F5F5F5F5F5F5F5F5F5F5F5F5F5F5F5F5F5F5
310
F5F5F5F5F5F5F5F5F5F5F5F5F5F5F5F5F5F5F5F5F5F5F5F5F5F5F5F5F5F5F5F5F5F5F5F5F5F5F5F5F5F5F5F5F5F5F5F5F5F5F5F5F5F5F5F5F5F5F5F5F5F5F5F5F5F5F5F5F5F5F5F5F5F5F5F5F5F5F5F5F5F5F5F5F5F5F5F5F5F5F5F5F5F5E2F5F5F5F5F5F5F5F5F5F5F5F5F5F5F5F5E2F5F5F5E2E2EFF5F5F5E2F5F5F5F5F5
310
F5F5F5F5F5F5F5F5F5F5F5E2F5F5F5F5F5F5F5F5F5F5F5F5F5F5F5F5F5F5F5F5F5F5F5F5F5F5F5F5F5F5F5F5F5F5F5F5F5F5F5F5F5F5F5F5F5F5F5F5F5F5F5F5F5F5F5F5F5F5F5F5F5F5F5F5F5F5F5F5F5F5F5F5F5F5F5F5F5F5F5F5F5F5F5F5F5F5F5F5F5F5F5F5F5F5F5F5F5F5F5F5F5F5F5F5F5F5F5F5F5F5F5F5F5F5F5
310
F5F5F5F5F5F5F5F5F5F5F5F5F5F5F5F5F5F5F5F5E2F5F5F5F5F5F5F5F5F5F5F5F5F5F5F5F5E2F5F5F5E2E2EFF5F5F5E2F5F5F5F5F5F5F5F5F5F5F5F5F5F5F5F5E2F5F5F5F5F5F5F5F5F5F5F5F5F5F5F5F5F5F5F5F5F5F5F5F5F5F5F5F5F5F5F5F5F5F5F5F5F5F5F5F5F5F5F5F5F5F5F5F5F5F5F5F5F5F5F5F5F5F5F5F5F5F5
310
F5F5F5F5F5F5F5F5F5F5F5F5F5F5F5F5F5F5F5F5F5F5F5F5F5F5F5F5F5F5F5F5F5F5F5F5F5F5F5F5F5F5F5F5F5F5F5F5F5F5F5F5F5F5F5F5F5F5F5F5F5F5F5F5F5F5F5F5F5F5F5F5F5E2F5F5F5F5F5F5F5F5F5F5F5F5F5F5F5F5E2F5F5F5E2E2EFF5F5F5E2F5F5F5F5F5F5F5F5F5F5F5F5F5F5F5F5E2F5F5F5F5F5F5F5F5F5
310
F5F5F5F5F5F5F5F5F5F5F5F5F5F5F5F5F5F5F5F5F5F5F5F5F5F5F5F5F5F5F5F5F5F5F5F5F5F5F5F5F5F5F5F5F5F5F5F5F5F5F5F5F5F5F5F5F5F5F5F5F5F5F5F5F5F5F5F5F5F5F5F5F5F5F5F5F5F5F5F5F5F5F5F5F5F5F5F5F5F5F5F5F5F5F5F5F5F5F5F5F5F5F5F5F5F5F5F5F5F5F5F5F5F5F5F5F5F5F5F5F5F5F5F5F5F5E2
310
F5F5F5F5F5F5F5F5F5F5F5F5F5F5F5F5E2F5F5F5E2E2EFF5F5F5E2F5F5F5F5F5F5F5F5F5F5F5F5F5F5F5F5E2F5F5F5F5F5F5F5F5F5F5F5F5F5F5F5F5F5F5F5F5F5F5F5F5F5F5F5F5F5F5F5F5F5F5F5F5F5F5F5F5F5F5F5F5F5F5F5F5F5F5F5F5F5F5F5F5F5F5F5F5F5F5F5F5F5F5F5F5F5F5F5F5F5F5F5F5F5F5F5F5F5F5F5
310
F5F5F5F5F5F5F5F5F5F5F5F5F5F5F5F5F5F5F5F5F5F5F5F5F5F5F5F5F5F5F5F5F5F5F5F5F5F5F5F5F5F5F5F5F5F5F5F5F5F5F5F5E2F5F5F5F5F5F5F5F5F5F5F5F5F5F5F5F5E2F5F5F5E2E2EFF5F5F5E2F5F5F5F5F5F5F5F5F5F5F5F5F5F5F5F5E2F5F5F5F5F5F5F5F5F5F5F5F5F5F5F5F5F5F5F5F5F5F5F5F5F5F5F5F5F5F5
310
F5F5F5F5F5F5F5F5F5F5F5F5F5F5F5F5F5F5F5F5F5F5F5F5F5F5F5F5F5F5F5F5F5F5F5F5F5F5F5F5F5F5F5F5F5F5F5F5F5F5F5F5F5F5F5F5F5F5F5F5F5F5F5F5F5F5F5F5F5F5F5F5F5F5F5F5F5F5F5F5F5F5F5F5F5F5F5F5F5F5F5F5F5F5F5F5F5F5F5F5F5F5F5F5F5E2F5F5F5F5F5F5F5F5F5F5F5F5F5F5F5F5E2F5F5F5E2
310
E2EFF5F5F5E2F5F5F5F5F5F5F5F5F5F5F5F5F5F5F5F5E2F5F5F5F5F5F5F5F5F5F5F5F5F5F5F5F5F5F5F5F5F5F5F5F5F5F5F5F5F5F5F5F5F5F5F5F5F5F5F5F5F5F5F5F5F5F5F5F5F5F5F5F5F5F5F5F5F5F5F5F5F5F5F5F5F5F5F5F5F5F5F5F5F5F5F5F5F5F5F5F5F5F5F5F5F5F5F5F5F5F5F5F5F5F5F5F5F5F5F5F5F5F5F5F5
310
F5F5F5F5F5F5F5F5F5F5F5F5F5F5F5F5F5F5F5F5F5F5F5F5F5F5F5F5F5F5F5E2F5F5F5F5F5F5F5F5F5F5F5F5F5F5F5F5E2F5F5F5E2E2EFF5F5F5E2F5F5F5F5F5F5F5F5F5F5F5F5F5F5F5F5E2F5F5F5F5F5F5F5F5F5F5F5F5F5F5F5F5F5F5F5F5F5F5F5F5F5F5F5F5F5F5F5F5F5F5F5F5F5F5F5F5F5F5F5F5F5F5F5F5F5F5F5
310
F5F5F5F5F5F5F5F5F5F5F5F5F5F5F5F5F5F5F5F5F5F5F5F5F5F5F5F5F5F5F5F5F5F5F5F5F5F5F5F5F5F5F5F5F5F5F5F5F5F5F5F5F5F5F5F5F5F5F5F5F5F5F5F5F5F5F5F5F5F5F5F5F5F5F5F5F5F5F5F5F5F5F5F5E2F5F5F5F5F5F5F5F5F5F5F5F5F5F5F5F5E2F5F5F5E2E2EFF5F5F5E2F5F5F5F5F5F5F5F5F5F5F5F5F5F5F5
310
F5E2F5F5F5F5F5F5F5F5F5F5F5F5F5F5F5F5F5F5F5F5F5F5F5F5F5F5F5F5F5F5F5F5F5F5F5F5F5F5F5F5F5F5F5F5F5F5F5F5F5F5F5F5F5F5F5F5F5F5F5F5F5F5F5F5F5F5F5F5F5F5F5F5F5F5F5F5F5F5F5F5F5F5F5F5F5F5F5F5F5F5F5F5F5F5F5F5F5F5F5F5F5F5F5F5F5F5F5F5F5F5F5F5F5F5F5F5F5F5F5F5F5F5F5F5F5
310
F5F5F5F5F5F5F5F5F5F5E2F5F5F5F5F5F5F5F5F5F5F5F5F5F5F5F5E2F5F5F5E2E2EFF5F5F5E2F5F5F5F5F5F5F5F5F5F5F5F5F5F5F5F5E2F5F5F5F5F5F5F5F5F5F5F5F5F5F5F5F5F5F5F5F5F5F5F5F5F5F5F5F5F5F5F5F5F5F5F5F5F5F5F5F5F5F5F5F5F5F5F5F5F5F5F5F5F5F5F5F5F5F5F5F5F5F5F5F5F5F5F5F5F5F5F5F5
310
F5F5F5F5F5F5F5F5F5F5F5F5F5F5F5F5F5F5F5F5F5F5F5F5F5F5F5F5F5F5F5F5F5F5F5F5F5F5F5F5F5F5F5F5F5F5F5F5F5F5F5F5F5F5F5F5F5F5F5F5F5F5F5E2F5F5F5F5F5F5F5F5F5F5F5F5F5F5F5F5E2F5F5F5E2E2EFF5F5F5E2F5F5F5F5F5F5F5F5F5F5F5F5F5F5F5F5E2F5F5F5F5F5F5F5F5F5F5F5F5F5F5F5F5F5F5F5
310
F5F5F5F5F5F5F5F5F5F5F5F5F5F5F5F5F5F5F5F5F5F5F5F5F5F5F5F5F5F5F5F5F5F5F5F5F5F5F5F5F5F5F5F5F5F5F5F5F5F5F5F5F5F5F5F5F5F5F5F5F5F5F5F5F5F5F5F5F5F5F5F5F5F5F5F5F5F5F5F5F5F5F5F5F5F5F5F5F5F5F5F5F5F5F5F5F5F5F5F5F5F5F5F5F5F5F5F5F5F5F5F5F5F5F5F5E2F5F5F5F5F5F5F5F5F5F5
310
F5F5F5F5F5F5E2F5F5F5E2E2EFF5F5F5E2F5F5F5F5F5F5F5F5F5F5F5F5F5F5F5F5E2F5F5F5F5F5F5F5F5F5F5F5F5F5F5F5F5F5F5F5F5F5F5F5F5F5F5F5F5F5F5F5F5F5F5F5F5F5F5F5F5F5F5F5F5F5F5F5F5F5F5F5F5F5F5F5F5F5F5F5F5F5F5F5F5F5F5F5F5F5F5F5F5F5F5F5F5F5F5F5F5F5F5F5F5F5F5F5F5F5F5F5F5F5
310
F5F5F5F5F5F5F5F5F5F5F5F5F5F5F5F5F5F5F5F5F5F5F5F5F5F5F5F5F5F5F5F5F5F5F5F5F5F5F5F5F5F5E2F5F5F5F5F5F5F5F5F5F5F5F5F5F5F5F5E2F5F5F5E2E2EFF5F5F5E2F5F5F5F5F5F5F5F5F5F5F5F5F5F5F5F5E2F5F5F5F5F5F5F5F5F5F5F5F5F5F5F5F5F5F5F5F5F5F5F5F5F5F5F5F5F5F5F5F5F5F5F5F5F5F5F5F5
310
F5F5F5F5F5F5F5F5F5F5F5F5F5F5F5F5F5F5F5F5F5F5F5F5F5F5F5F5F5F5F5F5F5F5F5F5F5F5F5F5F5F5F5F5F5F5F5F5F5F5F5F5F5F5F5F5F5F5F5F5F5F5F5F5F5F5F5F5F5F5F5F5F5F5F5F5F5F5F5F5F5F5F5F5F5F5F5F5F5F5F5F5F5F5F5E2F5F5F5F5F5F5F5F5F5F5F5F5F5F5F5F5E2F5F5F5E2E2EFF5F5F5E2F5F5F5F5
310
F5F5F5F5F5F5F5F5F5F5F5F5E2F5F5F5F5F5F5F5F5F5F5F5F5F5F5F5F5F5F5F5F5F5F5F5F5F5F5F5F5F5F5F5F5F5F5F5F5F5F5F5F5F5F5F5F5F5F5F5F5F5F5F5F5F5F5F5F5F5F5F5F5F5F5F5F5F5F5F5F5F5F5F5F5F5F5F5F5F5F5F5F5F5F5F5F5F5F5F5F5F5F5F5F5F5F5F5F5F5F5F5F5F5F5F5F5F5F5F5F5F5F5F5F5F5F5
310
F5F5F5F5F5F5F5F5F5F5F5F5F5F5F5F5F5F5F5F5F5E2F5F5F5F5F5F5F5F5F5F5F5F5F5F5F5F5E2F5F5F5E2E2EFF5F5F5F5F5F5F5F5F5F5F5F5F5F5F5F5F5F5F5F5E2F5F5F5F5F5F5F5F5F5F5F5F5F5F5F5F5F5F5F5F5F5F5F5F5F5F5F5F5F5F5F5F5F5F5F5F5F5F5F5F5F5F5F5F5F5F5F5F5F5F5F5F5F5F5F5F5F5F5F5F5F5
310
F5F5F5F5F5F5F5F5F5F5F5F5F5F5F5F5F5F5F5F5F5F5F5F5F5F5F5F5F5F5F5F5F5F5F5F5F5F5F5F5F5F5F5F5F5F5F5F5F5F5F5F5F5F5F5F5F5F5F5F5F5F5F5F5F5F5F5F5F5F5F5F5F5F5E2F5F5F5F5F5F5F5F5F5F5F5F5F5F5F5F5F5F5F5F5E2E2EFF5F5F5F5F5F5F5F5F5F5F5F5F5F5F5F5F5F5F5F5E2F5F5F5F5F5F5F5F5
310
F5F5F5F5F5F5F5F5F5F5F5F5F5F5F5F5F5F5F5F5F5F5F5F5F5F5F5F5F5F5F5F5F5F5F5F5F5F5F5F5F5F5F5F5F5F5F5F5F5F5F5F5F5F5F5F5F5F5F5F5F5F5F5F5F5F5F5F5F5F5F5F5F5F5F5F5F5F5F5F5F5F5F5F5F5F5F5F5F5F5F5F5F5F5F5F5F5F5F5F5F5F5F5F5F5F5F5F5F5F5F5F5F5F5F5F5F5F5F5F5F5F5F5F5F5F5F5
310
E2F5F5F5F5F5F5F5F5F5F5F5F5F5F5F5F5F5F5F5F5E2E2EFF5F5F5F5F5F5F5F5F5F5F5F5F5F5F5F5F5F5F5F5E2F5F5F5F5F5F5F5F5F5F5F5F5F5F5F5F5F5F5F5F5F5F5F5F5F5F5F5F5F5F5F5F5F5F5F5F5F5F5F5F5F5F5F5F5F5F5F5F5F5F5F5F5F5F5F5F5F5F5F5F5F5F5F5F5F5F5F5F5F5F5F5F5F5F5F5F5F5F5F5F5F5F5
310
F5F5F5F5F5F5F5F5F5F5F5F5F5F5F5F5F5F5F5F5F5F5F5F5F5F5F5F5F5F5F5F5F5F5F5F5F5F5F5F5F5F5F5F5F5F5F5F5F5F5F5F5F5E2F5F5F5F5F5F5F5F5F5F5F5F5F5F5F5F5F5F5F5F5E2E2EFF5F5F5F5F5F5F5F5F5F5F5F5F5F5F5F5F5F5F5F5E2F5F5F5F5F5F5F5F5F5F5F5F5F5F5F5F5F5F5F5F5F5F5F5F5F5F5F5F5F5
310
F5F5F5F5F5F5F5F5F5F5F5F5F5F5F5F5F5F5F5F5F5F5F5F5F5F5F5F5F5F5F5F5F5F5F5F5F5F5F5F5F5F5F5F5F5F5F5F5F5F5F5F5F5F5F5F5F5F5F5F5F5F5F5F5F5F5F5F5F5F5F5F5F5F5F5F5F5F5F5F5F5F5F5F5F5F5F5F5F5F5F5F5F5F5F5F5F5F5F5F5F5F5F5F5F5F5E2F5F5F5F5F5F5F5F5F5F5F5F5F5F5F5F5F5F5F5F5
310
E2E2EFF5F5F5F5F5F5F5F5F5F5F5F5F5F5F5F5F5F5F5F5E2F5F5F5F5F5F5F5F5F5F5F5F5F5F5F5F5F5F5F5F5F5F5F5F5F5F5F5F5F5F5F5F5F5F5F5F5F5F5F5F5F5F5F5F5F5F5F5F5F5F5F5F5F5F5F5F5F5F5F5F5F5F5F5F5F5F5F5F5F5F5F5F5F5F5F5F5F5F5F5F5F5F5F5F5F5F5F5F5F5F5F5F5F5F5F5F5F5F5F5F5F5F5F5
310
F5F5F5F5F5F5F5F5F5F5F5F5F5F5F5F5F5F5F5F5F5F5F5F5F5F5F5F5F5F5F5F5E2F5F5F5F5F5F5F5F5F5F5F5F5F5F5F5F5F5F5F5F5E2E2EFF5F5F5F5F5F5F5F5F5F5F5F5F5F5F5F5F5F5F5F5E2F5F5F5F5F5F5F5F5F5F5F5F5F5F5F5F5F5F5F5F5F5F5F5F5F5F5F5F5F5F5F5F5F5F5F5F5F5F5F5F5F5F5F5F5F5F5F5F5F5F5
310
F5F5F5F5F5F5F5F5F5F5F5F5F5F5F5F5F5F5F5F5F5F5F5F5F5F5F5F5F5F5F5F5F5F5F5F5F5F5F5F5F5F5F5F5F5F5F5F5F5F5F5F5F5F5F5F5F5F5F5F5F5F5F5F5F5F5F5F5F5F5F5F5F5F5F5F5F5F5F5F5F5F5F5F5F5E2F5F5F5F5F5F5F5F5F5F5F5F5F5F5F5F5F5F5F5F5E2E2EFF5F5F5F5F5F5F5F5F5F5F5F5F5F5F5F5F5F5
310
F5F5E2F5F5F5F5F5F5F5F5F5F5F5F5F5F5F5F5F5F5F5F5F5F5F5F5F5F5F5F5F5F5F5F5F5F5F5F5F5F5F5F5F5F5F5F5F5F5F5F5F5F5F5F5F5F5F5F5F5F5F5F5F5F5F5F5F5F5F5F5F5F5F5F5F5F5F5F5F5F5F5F5F5F5F5F5F5F5F5F5F5F5F5F5F5F5F5F5F5F5F5F5F5F5F5F5F5F5F5F5F5F5F5F5F5F5F5F5F5F5F5F5F5F5F5F5
310
F5F5F5F5F5F5F5F5F5F5F5E2F5F5F5F5F5F5F5F5F5F5F5F5F5F5F5F5F5F5F5F5E2E2EFF5F5F5F5F5F5F5F5F5F5F5F5F5F5F5F5F5F5F5F5E2F5F5F5F5F5F5F5F5F5F5F5F5F5F5F5F5F5F5F5F5F5F5F5F5F5F5F5F5F5F5F5F5F5F5F5F5F5F5F5F5F5F5F5F5F5F5F5F5F5F5F5F5F5F5F5F5F5F5F5F5F5F5F5F5F5F5F5F5F5F5F5
310
F5F5F5F5F5F5F5F5F5F5F5F5F5F5F5F5F5F5F5F5F5F5F5F5F5F5F5F5F5F5F5F5F5F5F5F5F5F5F5F5F5F5F5F5F5F5F5F5F5F5F5F5F5F5F5F5F5F5F5F5F5F5F5F5E2F5F5F5F5F5F5F5F5F5F5F5F5F5F5F5F5F5F5F5F5E2E2EFF5F5F5F5F5F5F5F5F5F5F5F5F5F5F5F5F5F5F5F5E2F5F5F5F5F5F5F5F5F5F5F5F5F5F5F5F5F5F5
310
F5F5F5F5F5F5F5F5F5F5F5F5F5F5F5F5F5F5F5F5F5F5F5F5F5F5F5F5F5F5F5F5F5F5F5F5F5F5F5F5F5F5F5F5F5F5F5F5F5F5F5F5F5F5F5F5F5F5F5F5F5F5F5F5F5F5F5F5F5F5F5F5F5F5F5F5F5F5F5F5F5F5F5F5F5F5F5F5F5F5F5F5F5F5F5F5F5F5F5F5F5F5F5F5F5F5F5F5F5F5F5F5F5F5F5F5F5E2F5F5F5F5F5F5F5F5F5
310
F5F5F5F5F5F5F5F5F5F5F5E2E2EFF5F5F5E2F5F5F5F5F5F5F5F5F5F5F5F5F5F5F5F5E2F5F5F5F5F5F5F5F5F5F5F5F5F5F5F5F5F5F5F5F5F5F5F5F5F5F5F5F5F5F5F5F5F5F5F5F5F5F5F5F5F5F5F5F5F5F5F5F5F5F5F5F5F5F5F5F5F5F5F5F5F5F5F5F5F5F5F5F5F5F5F5F5F5F5F5F5F5F5F5F5F5F5F5F5F5F5F5F5F5F5F5F5
310
F5F5F5F5F5F5F5F5F5F5F5F5F5F5F5F5F5F5F5F5F5F5F5F5F5F5F5F5F5F5F5F5F5F5F5F5F5F5F5F5F5F5F5E2F5F5F5F5F5F5F5F5F5F5F5F5F5F5F5F5E2F5F5F5E2E2EFF5F5F5E2F5F5F5F5F5F5F5F5F5F5F5F5F5F5F5F5E2F5F5F5F5F5F5F5F5F5F5F5F5F5F5F5F5F5F5F5F5F5F5F5F5F5F5F5F5F5F5F5F5F5F5F5F5F5F5F5
310
F5F5F5F5F5F5F5F5F5F5F5F5F5F5F5F5F5F5F5F5F5F5F5F5F5F5F5F5F5F5F5F5F5F5F5F5F5F5F5F5F5F5F5F5F5F5F5F5F5F5F5F5F5F5F5F5F5F5F5F5F5F5F5F5F5F5F5F5F5F5F5F5F5F5F5F5F5F5F5F5F5F5F5F5F5F5F5F5F5F5F5F5F5F5F5F5E2F5F5F5F5F5F5F5F5F5F5F5F5F5F5F5F5E2F5F5F5E2E2EFF5F5F5E2F5F5F5
310
F5F5F5F5F5F5F5F5F5F5F5F5F5E2F5F5F5F5F5F5F5F5F5F5F5F5F5F5F5F5F5F5F5F5F5F5F5F5F5F5F5F5F5F5F5F5F5F5F5F5F5F5F5F5F5F5F5F5F5F5F5F5F5F5F5F5F5F5F5F5F5F5F5F5F5F5F5F5F5F5F5F5F5F5F5F5F5F5F5F5F5F5F5F5F5F5F5F5F5F5F5F5F5F5F5F5F5F5F5F5F5F5F5F5F5F5F5F5F5F5F5F5F5F5F5F5F5
310
F5F5F5F5F5F5F5F5F5F5F5F5F5F5F5F5F5F5F5F5F5F5E2F5F5F5F5F5F5F5F5F5F5F5F5F5F5F5F5E2F5F5F5E2E2EFF5F5F5E2F5F5F5F5F5F5F5F5F5F5F5F5F5F5F5F5E2F5F5F5F5F5F5F5F5F5F5F5F5F5F5F5F5F5F5F5F5F5F5F5F5F5F5F5F5F5F5F5F5F5F5F5F5F5F5F5F5F5F5F5F5F5F5F5F5F5F5F5F5F5F5F5F5F5F5F5F5
310
F5F5F5F5F5F5F5F5F5F5F5F5F5F5F5F5F5F5F5F5F5F5F5F5F5F5F5F5F5F5F5F5F5F5F5F5F5F5F5F5F5F5F5F5F5F5F5F5F5F5F5F5F5F5F5F5F5F5F5F5F5F5F5F5F5F5F5F5F5F5F5F5F5F5F5E2F5F5F5F5F5F5F5F5F5F5F5F5F5F5F5F5E2F5F5F5E2E2EFF5F5F5E2F5F5F5F5F5F5F5F5F5F5F5F5F5F5F5F5E2F5F5F5F5F5F5F5
310
F5F5F5F5F5F5F5F5F5F5F5F5F5F5F5F5F5F5F5F5F5F5F5F5F5F5F5F5F5F5F5F5F5F5F5F5F5F5F5F5F5F5F5F5F5F5F5F5F5F5F5F5F5F5F5F5F5F5F5F5F5F5F5F5F5F5F5F5F5F5F5F5F5F5F5F5F5F5F5F5F5F5F5F5F5F5F5F5F5F5F5F5F5F5F5F5F5F5F5F5F5F5F5F5F5F5F5F5F5F5F5F5F5F5F5F5F5F5F5F5F5F5F5F5F5F5F5
310
F5E2F5F5F5F5F5F5F5F5F5F5F5F5F5F5F5F5E2F5F5F5E2E2EFF5F5F5E2F5F5F5F5F5F5F5F5F5F5F5F5F5F5F5F5E2F5F5F5F5F5F5F5F5F5F5F5F5F5F5F5F5F5F5F5F5F5F5F5F5F5F5F5F5F5F5F5F5F5F5F5F5F5F5F5F5F5F5F5F5F5F5F5F5F5F5F5F5F5F5F5F5F5F5F5F5F5F5F5F5F5F5F5F5F5F5F5F5F5F5F5F5F5F5F5F5F5
310
F5F5F5F5F5F5F5F5F5F5F5F5F5F5F5F5F5F5F5F5F5F5F5F5F5F5F5F5F5F5F5F5F5F5F5F5F5F5F5F5F5F5F5F5F5F5F5F5F5F5F5F5F5F5E2F5F5F5F5F5F5F5F5F5F5F5F5F5F5F5F5E2F5F5F5E2E2EFF5F5F5E2F5F5F5F5F5F5F5F5F5F5F5F5F5F5F5F5E2F5F5F5F5F5F5F5F5F5F5F5F5F5F5F5F5F5F5F5F5F5F5F5F5F5F5F5F5
310
F5F5F5F5F5F5F5F5F5F5F5F5F5F5F5F5F5F5F5F5F5F5F5F5F5F5F5F5F5F5F5F5F5F5F5F5F5F5F5F5F5F5F5F5F5F5F5F5F5F5F5F5F5F5F5F5F5F5F5F5F5F5F5F5F5F5F5F5F5F5F5F5F5F5F5F5F5F5F5F5F5F5F5F5F5F5F5F5F5F5F5F5F5F5F5F5F5F5F5F5F5F5F5F5F5F5F5E2F5F5F5F5F5F5F5F5F5F5F5F5F5F5F5F5E2F5F5
310
F5E2E2EFF5F5F5E2F5F5F5F5F5F5F5F5F5F5F5F5F5F5F5F5E2F5F5F5F5F5F5F5F5F5F5F5F5F5F5F5F5F5F5F5F5F5F5F5F5F5F5F5F5F5F5F5F5F5F5F5F5F5F5F5F5F5F5F5F5F5F5F5F5F5F5F5F5F5F5F5F5F5F5F5F5F5F5F5F5F5F5F5F5F5F5F5F5F5F5F5F5F5F5F5F5F5F5F5F5F5F5F5F5F5F5F5F5F5F5F5F5F5F5F5F5F5F5
310
F5F5F5F5F5F5F5F5F5F5F5F5F5F5F5F5F5F5F5F5F5F5F5F5F5F5F5F5F5F5F5F5F5E2F5F5F5F5F5F5F5F5F5F5F5F5F5F5F5F5E2F5F5F5E2E2EFF5F5F5E2F5F5F5F5F5F5F5F5F5F5F5F5F5F5F5F5E2F5F5F5F5F5F5F5F5F5F5F5F5F5F5F5F5F5F5F5F5F5F5F5F5F5F5F5F5F5F5F5F5F5F5F5F5F5F5F5F5F5F5F5F5F5F5F5F5F5
310
F5F5F5F5F5F5F5F5F5F5F5F5F5F5F5F5F5F5F5F5F5F5F5F5F5F5F5F5F5F5F5F5F5F5F5F5F5F5F5F5F5F5F5F5F5F5F5F5F5F5F5F5F5F5F5F5F5F5F5F5F5F5F5F5F5F5F5F5F5F5F5F5F5F5F5F5F5F5F5F5F5F5F5F5F5F5E2F5F5F5F5F5F5F5F5F5F5F5F5F5F5F5F5E2F5F5F5E2E2EFF5F5F5E2F5F5F5F5F5F5F5F5F5F5F5F5F5
310
F5F5F5E2F5F5F5F5F5F5F5F5F5F5F5F5F5F5F5F5F5F5F5F5F5F5F5F5F5F5F5F5F5F5F5F5F5F5F5F5F5F5F5F5F5F5F5F5F5F5F5F5F5F5F5F5F5F5F5F5F5F5F5F5F5F5F5F5F5F5F5F5F5F5F5F5F5F5F5F5F5F5F5F5F5F5F5F5F5F5F5F5F5F5F5F5F5F5F5F5F5F5F5F5F5F5F5F5F5F5F5F5F5F5F5F5F5F5F5F5F5F5F5F5F5F5F5
310
F5F5F5F5F5F5F5F5F5F5F5F5E2F5F5F5F5F5F5F5F5F5F5F5F5F5F5F5F5E2F5F5F5E2E2EFF5F5F5E2F5F5F5F5F5F5F5F5F5F5F5F5F5F5F5F5E2F5F5F5F5F5F5F5F5F5F5F5F5F5F5F5F5F5F5F5F5F5F5F5F5F5F5F5F5F5F5F5F5F5F5F5F5F5F5F5F5F5F5F5F5F5F5F5F5F5F5F5F5F5F5F5F5F5F5F5F5F5F5F5F5F5F5F5F5F5F5
310
F5F5F5F5F5F5F5F5F5F5F5F5F5F5F5F5F5F5F5F5F5F5F5F5F5F5F5F5F5F5F5F5F5F5F5F5F5F5F5F5F5F5F5F5F5F5F5F5F5F5F5F5F5F5F5F5F5F5F5F5F5F5F5F5F5E2F5F5F5F5F5F5F5F5F5F5F5F5F5F5F5F5E2F5F5F5E2E2EFF5F5F5E2F5F5F5F5F5F5F5F5F5F5F5F5F5F5F5F5E2F5F5F5F5F5F5F5F5F5F5F5F5F5F5F5F5F5
310
F5F5F5F5F5F5F5F5F5F5F5F5F5F5F5F5F5F5F5F5F5F5F5F5F5F5F5F5F5F5F5F5F5F5F5F5F5F5F5F5F5F5F5F5F5F5F5F5F5F5F5F5F5F5F5F5F5F5F5F5F5F5F5F5F5F5F5F5F5F5F5F5F5F5F5F5F5F5F5F5F5F5F5F5F5F5F5F5F5F5F5F5F5F5F5F5F5F5F5F5F5F5F5F5F5F5F5F5F5F5F5F5F5F5F5F5F5F5E2F5F5F5F5F5F5F5F5
310
F5F5F5F5F5F5F5F5E2F5F5F5E2E2EFF5F5F5E2F5F5F5F5F5F5F5F5F5F5F5F5F5F5F5F5E2F5F5F5F5F5F5F5F5F5F5F5F5F5F5F5F5F5F5F5F5F5F5F5F5F5F5F5F5F5F5F5F5F5F5F5F5F5F5F5F5F5F5F5F5F5F5F5F5F5F5F5F5F5F5F5F5F5F5F5F5F5F5F5F5F5F5F5F5F5F5F5F5F5F5F5F5F5F5F5F5F5F5F5F5F5F5F5F5F5F5F5
310
F5F5F5F5F5F5F5F5F5F5F5F5F5F5F5F5F5F5F5F5F5F5F5F5F5F5F5F5F5F5F5F5F5F5F5F5F5F5F5F5F5F5F5F5E2F5F5F5F5F5F5F5F5F5F5F5F5F5F5F5F5E2F5F5F5E2E2EFF5F5F5E2F5F5F5F5F5F5F5F5F5F5F5F5F5F5F5F5E2F5F5F5F5F5F5F5F5F5F5F5F5F5F5F5F5F5F5F5F5F5F5F5F5F5F5F5F5F5F5F5F5F5F5F5F5F5F5
310
F5F5F5F5F5F5F5F5F5F5F5F5F5F5F5F5F5F5F5F5F5F5F5F5F5F5F5F5F5F5F5F5F5F5F5F5F5F5F5F5F5F5F5F5F5F5F5F5F5F5F5F5F5F5F5F5F5F5F5F5F5F5F5F5F5F5F5F5F5F5F5F5F5F5F5F5F5F5F5F5F5F5F5F5F5F5F5F5F5F5F5F5F5F5F5F5F5E2F5F5F5F5F5F5F5F5F5F5F5F5F5F5F5F5E2F5F5F5E2E2EFF5F5F5E2F5F5
310
F5F5F5F5F5F5F5F5F5F5F5F5F5F5E2F5F5F5F5F5F5F5F5F5F5F5F5F5F5F5F5F5F5F5F5F5F5F5F5F5F5F5F5F5F5F5F5F5F5F5F5F5F5F5F5F5F5F5F5F5F5F5F5F5F5F5F5F5F5F5F5F5F5F5F5F5F5F5F5F5F5F5F5F5F5F5F5F5F5F5F5F5F5F5F5F5F5F5F5F5F5F5F5F5F5F5F5F5F5F5F5F5F5F5F5F5F5F5F5F5F5F5F5F5F5F5F5
310
F5F5F5F5F5F5F5F5F5F5F5F5F5F5F5F5F5F5F5F5F5F5F5E2F5F5F5F5F5F5F5F5F5F5F5F5F5F5F5F5E2F5F5F5E2E2EFF5F5F5E2F5F5F5F5F5F5F5F5F5F5F5F5F5F5F5F5E2F5F5F5F5F5F5F5F5F5F5F5F5F5F5F5F5F5F5F5F5F5F5F5F5F5F5F5F5F5F5F5F5F5F5F5F5F5F5F5F5F5F5F5F5F5F5F5F5F5F5F5F5F5F5F5F5F5F5F5
310
F5F5F5F5F5F5F5F5F5F5F5F5F5F5F5F5F5F5F5F5F5F5F5F5F5F5F5F5F5F5F5F5F5F5F5F5F5F5F5F5F5F5F5F5F5F5F5F5F5F5F5F5F5F5F5F5F5F5F5F5F5F5F5F5F5F5F5F5F5F5F5F5F5F5F5F5E2F5F5F5F5F5F5F5F5F5F5F5F5F5F5F5F5E2F5F5F5E2E2EFF5F5F5E2F5F5F5F5F5F5F5F5F5F5F5F5F5F5F5F5E2F5F5F5F5F5F5
310
F5F5F5F5F5F5F5F5F5F5F5F5F5F5F5F5F5F5F5F5F5F5F5F5F5F5F5F5F5F5F5F5F5F5F5F5F5F5F5F5F5F5F5F5F5F5F5F5F5F5F5F5F5F5F5F5F5F5F5F5F5F5F5F5F5F5F5F5F5F5F5F5F5F5F5F5F5F5F5F5F5F5F5F5F5F5F5F5F5F5F5F5F5F5F5F5F5F5F5F5F5F5F5F5F5F5F5F5F5F5F5F5F5F5F5F5F5F5F5F5F5F5F5F5F5F5F5
310
F5F5E2F5F5F5F5F5F5F5F5F5F5F5F5F5F5F5F5E2F5F5F5E2E2EFF5F5F5F5F5F5F5F5F5F5F5F5F5F5F5F5F5F5F5F5E2F5F5F5F5F5F5F5F5F5F5F5F5F5F5F5F5F5F5F5F5F5F5F5F5F5F5F5F5F5F5F5F5F5F5F5F5F5F5F5F5F5F5F5F5F5F5F5F5F5F5F5F5F5F5F5F5F5F5F5F5F5F5F5F5F5F5F5F5F5F5F5F5F5F5F5F5F5F5F5F5
310
F5F5F5F5F5F5F5F5F5F5F5F5F5F5F5F5F5F5F5F5F5F5F5F5F5F5F5F5F5F5F5F5F5F5F5F5F5F5F5F5F5F5F5F5F5F5F5F5F5F5F5F5F5F5F5E2F5F5F5F5F5F5F5F5F5F5F5F5F5F5F5F5F5F5F5F5E2E2EFF5F5F5F5F5F5F5F5F5F5F5F5F5F5F5F5F5F5F5F5E2F5F5F5F5F5F5F5F5F5F5F5F5F5F5F5F5F5F5F5F5F5F5F5F5F5F5F5
310
F5F5F5F5F5F5F5F5F5F5F5F5F5F5F5F5F5F5F5F5F5F5F5F5F5F5F5F5F5F5F5F5F5F5F5F5F5F5F5F5F5F5F5F5F5F5F5F5F5F5F5F5F5F5F5F5F5F5F5F5F5F5F5F5F5F5F5F5F5F5F5F5F5F5F5F5F5F5F5F5F5F5F5F5F5F5F5F5F5F5F5F5F5F5F5F5F5F5F5F5F5F5F5F5F5F5F5F5E2F5F5F5F5F5F5F5F5F5F5F5F5F5F5F5F5F5F5
310
F5F5E2E2EFF5F5F5F5F5F5F5F5F5F5F5F5F5F5F5F5F5F5F5F5E2F5F5F5F5F5F5F5F5F5F5F5F5F5F5F5F5F5F5F5F5F5F5F5F5F5F5F5F5F5F5F5F5F5F5F5F5F5F5F5F5F5F5F5F5F5F5F5F5F5F5F5F5F5F5F5F5F5F5F5F5F5F5F5F5F5F5F5F5F5F5F5F5F5F5F5F5F5F5F5F5F5F5F5F5F5F5F5F5F5F5F5F5F5F5F5F5F5F5F5F5F5
310
F5F5F5F5F5F5F5F5F5F5F5F5F5F5F5F5F5F5F5F5F5F5F5F5F5F5F5F5F5F5F5F5F5F5E2F5F5F5F5F5F5F5F5F5F5F5F5F5F5F5F5F5F5F5F5E2E2EFF5F5F5F5F5F5F5F5F5F5F5F5F5F5F5F5F5F5F5F5E2F5F5F5F5F5F5F5F5F5F5F5F5F5F5F5F5F5F5F5F5F5F5F5F5F5F5F5F5F5F5F5F5F5F5F5F5F5F5F5F5F5F5F5F5F5F5F5F5
310
F5F5F5F5F5F5F5F5F5F5F5F5F5F5F5F5F5F5F5F5F5F5F5F5F5F5F5F5F5F5F5F5F5F5F5F5F5F5F5F5F5F5F5F5F5F5F5F5F5F5F5F5F5F5F5F5F5F5F5F5F5F5F5F5F5F5F5F5F5F5F5F5F5F5F5F5F5F5F5F5F5F5F5F5F5F5F5E2F5F5F5F5F5F5F5F5F5F5F5F5F5F5F5F5F5F5F5F5E2E2EFF5F5F5F5F5F5F5F5F5F5F5F5F5F5F5F5
310
F5F5F5F5E2E2E2E2E2E2E2E2E2E2E2E2E2E2E2E2E2E2E2E2E2E2E2E2E2E2E2E2E2E2E2E2E2E2E2E2E2E2E2E2E2E2E2E2E2E2E2E2E2E2E2E2E2E2E2E2E2E2E2E2E2E2E2E2E2E2E2E2E2E2E2E2E2E2E2E2E2E2E2E2E2E2E2E2E2E2E2E2E2E2E2E2E2E2E2E2E2E2E2E2E2E2E2E2E2E2E2E2E2E2E2E2E2E2E2E2E2E2E2E2E2E2E2
310
E2E2E2E2E2E2E2E2E2E2E2E2E2E2F5F5F5F5F5F5F5F5F5F5F5F5F5F5F5F5F5F5F5F5E2E2EFF5F5F5F5F5F5F5F5F5F5F5F5F5F5F5F5F5F5F5F5F5F5F5F5F5F5F5F5F5F5F5F5F5F5F5F5F5F5F5F5F5F5F5F5F5F5F5F5F5F5F5F5F5F5F5F5F5F5F5F5F5F5F5F5F5F5F5F5F5F5F5F5F5F5F5F5F5F5F5F5F5F5F5F5F5F5F5F5F5F5
310
F5F5F5F5F5F5F5F5F5F5F5F5F5F5F5F5F5F5F5F5F5F5F5F5F5F5F5F5F5F5F5F5F5F5F5F5F5F5F5F5F5F5F5F5F5F5F5F5F5F5F5F5F5F5F5F5F5F5F5F5F5F5F5F5F5F5F5F5F5F5F5F5F5F5F5F5F5F5F5F5F5F5F5F5F5F5F5E2E2EFF5F5F5F5F5F5F5F5F5F5F5F5F5F5F5F5F5F5F5F5F5F5F5F5F5F5F5F5F5F5F5F5F5F5F5F5F5
310
F5F5F5F5F5F5F5F5F5F5F5F5F5F5F5F5F5F5F5F5F5F5F5F5F5F5F5F5F5F5F5F5F5F5F5F5F5F5F5F5F5F5F5F5F5F5F5F5F5F5F5F5F5F5F5F5F5F5F5F5F5F5F5F5F5F5F5F5F5F5F5F5F5F5F5F5F5F5F5F5F5F5F5F5F5F5F5F5F5F5F5F5F5F5F5F5F5F5F5F5F5F5F5F5F5F5F5F5F5F5F5F5F5F5F5F5F5F5F5F5F5F5F5F5F5F5F5
310
F5F5F5F5F5F5F5F5F5F5F5F5F5E2E2EFF5F5F5F5F5F5F5F5F5F5F5F5F5F5F5F5F5F5F5F5F5F5F5F5F5F5F5F5F5F5F5F5F5F5F5F5F5F5F5F5F5F5F5F5F5F5F5F5F5F5F5F5F5F5F5F5F5F5F5F5F5F5F5F5F5F5F5F5F5F5F5F5F5F5F5F5F5F5F5F5F5F5F5F5F5F5F5F5F5F5F5F5F5F5F5F5F5F5F5F5F5F5F5F5F5F5F5F5F5F5F5
310
F5F5F5F5F5F5F5F5F5F5F5F5F5F5F5F5F5F5F5F5F5F5F5F5F5F5F5F5F5F5F5F5F5F5F5F5F5F5F5F5F5F5F5F5F5F5F5F5F5F5F5F5F5F5F5F5F5F5F5F5F5F5F5F5F5F5E2E2EFF5F5F5F5F5F5F5F5F5F5F5F5F5F5F5F5F5F5F5F5F5F5F5F5F5F5F5F5F5F5F5F5F5F5F5F5F5F5F5F5F5F5F5F5F5F5F5F5F5F5F5F5F5F5F5F5F5F5
310
F5F5F5F5F5F5F5F5F5F5F5F5F5F5F5F5F5F5F5F5F5F5F5F5F5F5F5F5F5F5F5F5F5F5F5F5F5F5F5F5F5F5F5F5F5F5F5F5F5F5F5F5F5F5F5F5F5F5F5F5F5F5F5F5F5F5F5F5F5F5F5F5F5F5F5F5F5F5F5F5F5F5F5F5F5F5F5F5F5F5F5F5F5F5F5F5F5F5F5F5F5F5F5F5F5F5F5F5F5F5F5F5F5F5F5F5F5F5F5E2E2EFF5F5F5E2F5
310
F5F5F5F5F5F5F5F5F5F5F5F5F5F5F5F5F5F5F5F5F5F5F5F5F5F5F5F5F5F5F5F5F5F5F5F5F5F5F5F5F5F5F5F5F5F5F5F5F5F5F5F5F5F5F5F5F5F5F5F5F5F5F5F5F5F5F5F5F5F5F5F5F5F5F5F5F5F5F5F5F5F5F5F5F5F5F5F5F5F5F5F5F5F5F5F5F5F5F5F5F5F5F5F5F5F5F5F5F5F5F5F5F5F5F5F5F5F5F5F5F5F5F5F5F5F5F5
310
F5F5F5F5F5F5F5F5F5F5F5F5F5F5F5F5F5F5F5F5F5F5F5F5F5F5F5F5F5F5F5F5F5F5F5F5F5F5F5F5F5E2F5F5F5E2E2EFF5F5F5E2F5F5F5F5F5F5F5F5F5F5F5F5F5F5F5F5F5F5F5F5F5F5F5F5F5F5F5F5F5F5F5F5F5F5F5F5F5F5F5F5F5F5F5F5F5F5F5F5F5F5F5F5F5F5F5F5F5F5F5F5F5F5F5F5F5F5F5F5F5F5F5F5F5F5F5
310
F5F5F5F5F5F5F5F5F5F5F5F5F5F5F5F5F5F5F5F5F5F5F5F5F5F5F5F5F5F5F5F5F5F5F5F5F5F5F5F5F5F5F5F5F5F5F5F5F5F5F5F5F5F5F5F5F5F5F5F5F5F5F5F5F5F5F5F5F5F5F5F5F5F5F5F5F5F5F5F5F5F5F5F5F5F5F5F5F5F5F5F5F5F5E2F5F5F5E2E2EFF5F5F5E2F5F5F5F5F5F5F5F5F5F5F5F5F5F5F5F5F5F5F5F5F5F5
310
F5F5F5F5F5F5F5F5F5F5F5F5F5F5F5F5F5F5F5F5F5F5F5F5F5F5F5F5F5F5F5F5F5F5F5F5F5F5F5F5F5F5F5F5F5F5F5F5F5F5F5F5F5F5F5F5F5F5F5F5F5F5F5F5F5F5F5F5F5F5F5F5F5F5F5F5F5F5F5F5F5F5F5F5F5F5F5F5F5F5F5F5F5F5F5F5F5F5F5F5F5F5F5F5F5F5F5F5F5F5F5F5F5F5F5F5F5F5F5F5F5F5F5F5F5F5F5
310
F5F5F5F5F5F5F5F5F5F5F5F5F5F5F5F5F5F5F5F5E2F5F5F5E2E2EFF5F5F5E2F5F5F5F5F5F5F5F5F5F5F5F5F5F5F5F5F5F5F5F5F5F5F5F5F5F5F5F5F5F5F5F5F5F5F5F5F5F5F5F5F5F5F5F5F5F5F5F5F5F5F5F5F5F5F5F5F5F5F5F5F5F5F5F5F5F5F5F5F5F5F5F5F5F5F5F5F5F5F5F5F5F5F5F5F5F5F5F5F5F5F5F5F5F5F5F5
310
F5F5F5F5F5F5F5F5F5F5F5F5F5F5F5F5F5F5F5F5F5F5F5F5F5F5F5F5F5F5F5F5F5F5F5F5F5F5F5F5F5F5F5F5F5F5F5F5F5F5F5F5F5F5F5F5F5F5F5F5F5F5F5F5F5F5F5F5F5F5F5F5F5E2F5F5F5E2E2EFF5F5F5E2F5F5F5F5F5F5F5F5F5F5F5F5F5F5F5F5F5F5F5F5F5F5F5F5F5F5F5F5F5F5F5F5F5F5F5F5F5F5F5F5F5F5F5
310
F5F5F5F5F5F5F5F5F5F5F5F5F5F5F5F5F5F5F5F5F5F5F5F5F5F5F5F5F5F5F5F5F5F5F5F5F5F5F5F5F5F5F5F5F5F5F5F5F5F5F5F5F5F5F5F5F5F5F5F5F5F5F5F5F5F5F5F5F5F5F5F5F5F5F5F5F5F5F5F5F5F5F5F5F5F5F5F5F5F5F5F5F5F5F5F5F5F5F5F5F5F5F5F5F5F5F5F5F5F5F5F5F5F5F5F5F5F5F5F5F5F5F5F5F5F5E2
310
F5F5F5E2E2EFF5F5F5E2F5F5F5F5F5F5F5F5F5F5F5F5F5F5F5F5F5F5F5F5F5F5F5F5F5F5F5F5F5F5F5F5F5F5F5F5F5F5F5F5F5F5F5F5F5F5F5F5F5F5F5F5F5F5F5F5F5F5F5F5F5F5F5F5F5F5F5F5F5F5F5F5F5F5F5F5F5F5F5F5F5F5F5F5F5F5F5F5F5F5F5F5F5F5F5F5F5F5F5F5F5F5F5F5F5F5F5F5F5F5F5F5F5F5F5F5F5
310
F5F5F5F5F5F5F5F5F5F5F5F5F5F5F5F5F5F5F5F5F5F5F5F5F5F5F5F5F5F5F5F5F5F5F5F5F5F5F5F5F5F5F5F5F5F5F5F5F5F5F5F5E2F5F5F5E2E2EFF5F5F5E2F5F5F5F5F5F5F5F5F5F5F5F5F5F5F5F5F5F5F5F5F5F5F5F5F5F5F5F5F5F5F5F5F5F5F5F5F5F5F5F5F5F5F5F5F5F5F5F5F5F5F5F5F5F5F5F5F5F5F5F5F5F5F5F5
310
F5F5F5F5F5F5F5F5F5F5F5F5F5F5F5F5F5F5F5F5F5F5F5F5F5F5F5F5F5F5F5F5F5F5F5F5F5F5F5F5F5F5F5F5F5F5F5F5F5F5F5F5F5F5F5F5F5F5F5F5F5F5F5F5F5F5F5F5F5F5F5F5F5F5F5F5F5F5F5F5F5F5F5F5F5F5F5F5F5F5F5F5F5F5F5F5F5F5F5F5F5F5F5F5F5E2F5F5F5E2E2EFF5F5F5E2F5F5F5F5F5F5F5F5F5F5F5
310
F5F5F5F5F5F5F5F5F5F5F5F5F5F5F5F5F5F5F5F5F5F5F5F5F5F5F5F5F5F5F5F5F5F5F5F5F5F5F5F5F5F5F5F5F5F5F5F5F5F5F5F5F5F5F5F5F5F5F5F5F5F5F5F5F5F5F5F5F5F5F5F5F5F5F5F5F5F5F5F5F5F5F5F5F5F5F5F5F5F5F5F5F5F5F5F5F5F5F5F5F5F5F5F5F5F5F5F5F5F5F5F5F5F5F5F5F5F5F5F5F5F5F5F5F5F5F5
310
F5F5F5F5F5F5F5F5F5F5F5F5F5F5F5F5F5F5F5F5F5F5F5F5F5F5F5F5F5F5F5E2F5F5F5E2E2EFF5F5F5E2E2E2E2E2E2E2E2F5F5F5F5F5F5F5F5F5E2E2E2E2E2E2E2E2E2E2E2E2E2E2E2E2F5F5F5F5F5F5F5F5E2E2E2E2E2E2E2E2E2E2E2E2E2E2E2E2F5F5F5F5F5F5F5F5F5E2E2E2E2E2E2E2E2E2E2E2E2E2E2E2F5F5F5F5F5
310
F5F5F5F5E2E2E2E2E2E2E2E2E2E2E2E2E2E2E2F5F5F5F5F5F5F5F5F5E2E2E2E2E2E2E2E2E2E2E2E2E2E2E2E2F5F5F5F5F5F5F5F5E2E2E2E2E2E2E2E2E2E2E2E2E2E2E2E2F5F5F5F5F5F5F5F5F5E2E2E2E2E2E2E2E2F5F5F5E2E2EFF5F5F5F5F5F5F5F5F5F5F5F5F5F5F5F5F5F5F5F5F5F5F5F5F5F5F5F5F5F5F5F5F5F5F5F5
310
F5F5F5F5F5F5F5F5F5F5F5F5F5F5F5F5F5F5F5F5F5F5F5F5F5F5F5F5F5F5F5F5F5F5F5F5F5F5F5F5F5F5F5F5F5F5F5F5F5F5F5F5F5F5F5F5F5F5F5F5F5F5F5F5F5F5F5F5F5F5F5F5F5F5F5F5F5F5F5F5F5F5F5F5F5F5F5F5F5F5F5F5F5F5F5F5F5F5F5F5F5F5F5F5F5F5F5F5F5F5F5F5F5F5F5F5F5F5F5F5F5F5F5F5F5F5F5
310
F5F5F5F5F5F5F5F5F5F5F5F5F5F5E2E2EFF5F5F5F5F5F5F5F5F5F5F5F5F5F5F5F5F5F5F5F5F5F5F5F5F5F5F5F5F5F5F5F5F5F5F5F5F5F5F5F5F5F5F5F5F5F5F5F5F5F5F5F5F5F5F5F5F5F5F5F5F5F5F5F5F5F5F5F5F5F5F5F5F5F5F5F5F5F5F5F5F5F5F5F5F5F5F5F5F5F5F5F5F5F5F5F5F5F5F5F5F5F5F5F5F5F5F5F5F5F5
310
F5F5F5F5F5F5F5F5F5F5F5F5F5F5F5F5F5F5F5F5F5F5F5F5F5F5F5F5F5F5F5F5F5F5F5F5F5F5F5F5F5F5F5F5F5F5F5F5F5F5F5F5F5F5F5F5F5F5F5F5F5F5F5F5F5F5F5E2EFEFF5F5F5F5F5F5F5F5F5F5F5F5F5F5F5F5F5F5F5F5F5F5F5F5F5F5F5F5F5F5F5F5F5F5F5F5F5F5F5F5F5F5F5F5F5F5F5F5F5F5F5F5F5F5F5F5F5
310
F5F5F5F5F5F5F5F5F5F5F5F5F5F5F5F5F5F5F5F5F5F5F5F5F5F5F5F5F5F5F5F5F5F5F5F5F5F5F5F5F5F5F5F5F5F5F5F5F5F5F5F5F5F5F5F5F5F5F5F5F5F5F5F5F5F5F5F5F5F5F5F5F5F5F5F5F5F5F5F5F5F5F5F5F5F5F5F5F5F5F5F5F5F5F5F5F5F5F5F5F5F5F5F5F5F5F5F5F5F5F5F5F5F5F5F5F5F5F5F5E2EFEFE2E2E2E2
310
E2E2E2E2E2E2E2E2E2E2E2E2E2E2E2E2E2E2E2E2E2E2E2E2E2E2E2E2E2E2E2E2E2E2E2E2E2E2E2E2E2E2E2E2E2E2E2E2E2E2E2E2E2E2E2E2E2E2E2E2E2E2E2E2E2E2E2E2E2E2E2E2E2E2E2E2E2E2E2E2E2E2E2E2E2E2E2E2E2E2E2E2E2E2E2E2E2E2E2E2E2E2E2E2E2E2E2E2E2E2E2E2E2E2E2E2E2E2E2E2E2E2E2E2E2E2E2
310
E2E2E2E2E2E2E2E2E2E2E2E2E2E2E2E2E2E2E2E2E2E2E2E2E2E2E2E2E2E2E2E2E2E2E2E2E2E2E2E2E2E2E2E2E2E2E2EFEF
  0
XRECORD
  5
1591
102
{ACAD_REACTORS
330
1590
102
}
330
1590
100
AcDbXrecord
280
     1
270
     1
271
     1
  0
XRECORD
  5
1592
102
{ACAD_REACTORS
330
1590
102
}
330
1590
100
AcDbXrecord
280
     1
270
     1
271
     1
  0
XRECORD
  5
1593
102
{ACAD_REACTORS
330
1590
102
}
330
1590
100
AcDbXrecord
280
     1
270
     1
271
     1
  0
XRECORD
  5
1594
102
{ACAD_REACTORS
330
1590
102
}
330
1590
100
AcDbXrecord
280
     1
270
     1
271
     1
  0
XRECORD
  5
1595
102
{ACAD_REACTORS
330
1590
102
}
330
1590
100
AcDbXrecord
280
     1
270
     1
271
     1
  0
XRECORD
  5
1596
102
{ACAD_REACTORS
330
1590
102
}
330
1590
100
AcDbXrecord
280
     1
270
     1
271
     1
  0
XRECORD
  5
1589
102
{ACAD_REACTORS
330
1588
102
}
330
1588
100
AcDbXrecord
280
     1
270
     1
271
     1
  0
XRECORD
  5
158A
102
{ACAD_REACTORS
330
1588
102
}
330
1588
100
AcDbXrecord
280
     1
270
     1
271
     1
  0
XRECORD
  5
158B
102
{ACAD_REACTORS
330
1588
102
}
330
1588
100
AcDbXrecord
280
     1
270
     1
271
     1
  0
XRECORD
  5
158C
102
{ACAD_REACTORS
330
1588
102
}
330
1588
100
AcDbXrecord
280
     1
270
     1
271
     1
  0
XRECORD
  5
158D
102
{ACAD_REACTORS
330
1588
102
}
330
1588
100
AcDbXrecord
280
     1
270
     1
271
     1
  0
XRECORD
  5
158E
102
{ACAD_REACTORS
330
1588
102
}
330
1588
100
AcDbXrecord
280
     1
270
     1
271
     1
  0
XRECORD
  5
155F
102
{ACAD_REACTORS
330
155E
102
}
330
155E
100
AcDbXrecord
280
     1
270
     1
271
     1
  0
XRECORD
  5
1560
102
{ACAD_REACTORS
330
155E
102
}
330
155E
100
AcDbXrecord
280
     1
270
     1
271
     1
  0
XRECORD
  5
1561
102
{ACAD_REACTORS
330
155E
102
}
330
155E
100
AcDbXrecord
280
     1
270
     1
271
     1
  0
XRECORD
  5
1562
102
{ACAD_REACTORS
330
155E
102
}
330
155E
100
AcDbXrecord
280
     1
270
     1
271
     1
  0
XRECORD
  5
1563
102
{ACAD_REACTORS
330
155E
102
}
330
155E
100
AcDbXrecord
280
     1
270
     1
271
     1
  0
XRECORD
  5
1564
102
{ACAD_REACTORS
330
155E
102
}
330
155E
100
AcDbXrecord
280
     1
270
     1
271
     1
  0
CELLSTYLEMAP
  5
165E
102
{ACAD_REACTORS
330
15CC
102
}
330
15CC
100
AcDbCellStyleMap
 90
        3
300
CELLSTYLE
  1
TABLEFORMAT_BEGIN
 90
        5
170
     1
 91
        0
 92
    32768
 62
   257
 93
        1
300
CONTENTFORMAT
  1
CONTENTFORMAT_BEGIN
 90
        0
 91
        0
 92
        4
 93
        0
300

 40
0.0
140
1.0
 94
        5
 62
     0
340
1574
144
0.25
309
CONTENTFORMAT_END
171
     1
301
MARGIN
  1
CELLMARGIN_BEGIN
 40
0.06
 40
0.06
 40
0.06
 40
0.06
 40
0.18
 40
0.18
309
CELLMARGIN_END
 94
        6
 95
        1
302
GRIDFORMAT
  1
GRIDFORMAT_BEGIN
 90
        0
 91
        1
 62
     0
 92
       -2
340
0
 93
        0
 40
0.045
309
GRIDFORMAT_END
 95
        2
302
GRIDFORMAT
  1
GRIDFORMAT_BEGIN
 90
        0
 91
        1
 62
     0
 92
       -2
340
0
 93
        0
 40
0.045
309
GRIDFORMAT_END
 95
        4
302
GRIDFORMAT
  1
GRIDFORMAT_BEGIN
 90
        0
 91
        1
 62
     0
 92
       -2
340
0
 93
        0
 40
0.045
309
GRIDFORMAT_END
 95
        8
302
GRIDFORMAT
  1
GRIDFORMAT_BEGIN
 90
        0
 91
        1
 62
     0
 92
       -2
340
0
 93
        0
 40
0.045
309
GRIDFORMAT_END
 95
       16
302
GRIDFORMAT
  1
GRIDFORMAT_BEGIN
 90
        0
 91
        1
 62
     0
 92
       -2
340
0
 93
        0
 40
0.045
309
GRIDFORMAT_END
 95
       32
302
GRIDFORMAT
  1
GRIDFORMAT_BEGIN
 90
        0
 91
        1
 62
     0
 92
       -2
340
0
 93
        0
 40
0.045
309
GRIDFORMAT_END
309
TABLEFORMAT_END
  1
CELLSTYLE_BEGIN
 90
        1
 91
        1
300
_TITLE
309
CELLSTYLE_END
300
CELLSTYLE
  1
TABLEFORMAT_BEGIN
 90
        5
170
     1
 91
        0
 92
        0
 62
   257
 93
        1
300
CONTENTFORMAT
  1
CONTENTFORMAT_BEGIN
 90
        0
 91
        0
 92
        4
 93
        0
300

 40
0.0
140
1.0
 94
        5
 62
     0
340
1574
144
0.18
309
CONTENTFORMAT_END
171
     1
301
MARGIN
  1
CELLMARGIN_BEGIN
 40
0.06
 40
0.06
 40
0.06
 40
0.06
 40
0.18
 40
0.18
309
CELLMARGIN_END
 94
        6
 95
        1
302
GRIDFORMAT
  1
GRIDFORMAT_BEGIN
 90
        0
 91
        1
 62
     0
 92
       -2
340
0
 93
        0
 40
0.045
309
GRIDFORMAT_END
 95
        2
302
GRIDFORMAT
  1
GRIDFORMAT_BEGIN
 90
        0
 91
        1
 62
     0
 92
       -2
340
0
 93
        0
 40
0.045
309
GRIDFORMAT_END
 95
        4
302
GRIDFORMAT
  1
GRIDFORMAT_BEGIN
 90
        0
 91
        1
 62
     0
 92
       -2
340
0
 93
        0
 40
0.045
309
GRIDFORMAT_END
 95
        8
302
GRIDFORMAT
  1
GRIDFORMAT_BEGIN
 90
        0
 91
        1
 62
     0
 92
       -2
340
0
 93
        0
 40
0.045
309
GRIDFORMAT_END
 95
       16
302
GRIDFORMAT
  1
GRIDFORMAT_BEGIN
 90
        0
 91
        1
 62
     0
 92
       -2
340
0
 93
        0
 40
0.045
309
GRIDFORMAT_END
 95
       32
302
GRIDFORMAT
  1
GRIDFORMAT_BEGIN
 90
        0
 91
        1
 62
     0
 92
       -2
340
0
 93
        0
 40
0.045
309
GRIDFORMAT_END
309
TABLEFORMAT_END
  1
CELLSTYLE_BEGIN
 90
        2
 91
        1
300
_HEADER
309
CELLSTYLE_END
300
CELLSTYLE
  1
TABLEFORMAT_BEGIN
 90
        5
170
     1
 91
        0
 92
        0
 62
   257
 93
        1
300
CONTENTFORMAT
  1
CONTENTFORMAT_BEGIN
 90
        0
 91
        0
 92
        4
 93
        0
300

 40
0.0
140
1.0
 94
        2
 62
     0
340
1574
144
0.18
309
CONTENTFORMAT_END
171
     1
301
MARGIN
  1
CELLMARGIN_BEGIN
 40
0.06
 40
0.06
 40
0.06
 40
0.06
 40
0.18
 40
0.18
309
CELLMARGIN_END
 94
        6
 95
        1
302
GRIDFORMAT
  1
GRIDFORMAT_BEGIN
 90
        0
 91
        1
 62
     0
 92
       -2
340
0
 93
        0
 40
0.045
309
GRIDFORMAT_END
 95
        2
302
GRIDFORMAT
  1
GRIDFORMAT_BEGIN
 90
        0
 91
        1
 62
     0
 92
       -2
340
0
 93
        0
 40
0.045
309
GRIDFORMAT_END
 95
        4
302
GRIDFORMAT
  1
GRIDFORMAT_BEGIN
 90
        0
 91
        1
 62
     0
 92
       -2
340
0
 93
        0
 40
0.045
309
GRIDFORMAT_END
 95
        8
302
GRIDFORMAT
  1
GRIDFORMAT_BEGIN
 90
        0
 91
        1
 62
     0
 92
       -2
340
0
 93
        0
 40
0.045
309
GRIDFORMAT_END
 95
       16
302
GRIDFORMAT
  1
GRIDFORMAT_BEGIN
 90
        0
 91
        1
 62
     0
 92
       -2
340
0
 93
        0
 40
0.045
309
GRIDFORMAT_END
 95
       32
302
GRIDFORMAT
  1
GRIDFORMAT_BEGIN
 90
        0
 91
        1
 62
     0
 92
       -2
340
0
 93
        0
 40
0.045
309
GRIDFORMAT_END
309
TABLEFORMAT_END
  1
CELLSTYLE_BEGIN
 90
        3
 91
        2
300
_DATA
309
CELLSTYLE_END
  0
XRECORD
  5
1661
102
{ACAD_REACTORS
330
1660
102
}
330
1660
100
AcDbXrecord
280
     1
102
RTVSPropertyOp0
 70
     1
102
RTVSPropertyOp1
 70
     1
102
RTVSPropertyOp2
 70
     1
102
RTVSPropertyOp3
 70
     1
102
RTVSPropertyOp4
 70
     1
102
RTVSPropertyOp5
 70
     1
102
RTVSPropertyOp6
 70
     1
102
RTVSPropertyOp7
 70
     1
102
RTVSPropertyOp8
 70
     1
102
RTVSPropertyOp9
 70
     1
102
RTVSPropertyOp10
 70
     1
102
RTVSPropertyOp11
 70
     1
102
RTVSPropertyOp12
 70
     1
102
RTVSPropertyOp13
 70
     1
102
RTVSPropertyOp14
 70
     1
102
RTVSPropertyOp15
 70
     1
102
RTVSPropertyOp16
 70
     1
102
RTVSPropertyOp17
 70
     1
102
RTVSPropertyOp18
 70
     1
102
RTVSPropertyOp19
 70
     1
102
RTVSPropertyOp20
 70
     1
102
RTVSPropertyOp21
 70
     1
102
RTVSPropertyOp22
 70
     1
102
RTVSPropertyOp23
 70
     1
102
RTVSPropertyOp24
 70
     1
102
RTVSPropertyOp25
 70
     1
102
RTVSPropertyOp26
 70
     1
102
RTVSPropertyOp27
 70
     1
  0
XRECORD
  5
1671
102
{ACAD_REACTORS
330
1670
102
}
330
1670
100
AcDbXrecord
280
     1
102
RTVSPropertyOp0
 70
     1
102
RTVSPropertyOp1
 70
     1
102
RTVSPropertyOp2
 70
     1
102
RTVSPropertyOp3
 70
     1
102
RTVSPropertyOp4
 70
     1
102
RTVSPropertyOp5
 70
     1
102
RTVSPropertyOp6
 70
     1
102
RTVSPropertyOp7
 70
     1
102
RTVSPropertyOp8
 70
     1
102
RTVSPropertyOp9
 70
     1
102
RTVSPropertyOp10
 70
     1
102
RTVSPropertyOp11
 70
     1
102
RTVSPropertyOp12
 70
     1
102
RTVSPropertyOp13
 70
     1
102
RTVSPropertyOp14
 70
     1
102
RTVSPropertyOp15
 70
     1
102
RTVSPropertyOp16
 70
     1
102
RTVSPropertyOp17
 70
     1
102
RTVSPropertyOp18
 70
     1
102
RTVSPropertyOp19
 70
     1
102
RTVSPropertyOp20
 70
     1
102
RTVSPropertyOp21
 70
     1
102
RTVSPropertyOp22
 70
     1
102
RTVSPropertyOp23
 70
     1
102
RTVSPropertyOp24
 70
     1
102
RTVSPropertyOp25
 70
     1
102
RTVSPropertyOp26
 70
     1
102
RTVSPropertyOp27
 70
     1
  0
XRECORD
  5
1665
102
{ACAD_REACTORS
330
1664
102
}
330
1664
100
AcDbXrecord
280
     1
102
RTVSPropertyOp0
 70
     1
102
RTVSPropertyOp1
 70
     1
102
RTVSPropertyOp2
 70
     1
102
RTVSPropertyOp3
 70
     1
102
RTVSPropertyOp4
 70
     1
102
RTVSPropertyOp5
 70
     1
102
RTVSPropertyOp6
 70
     1
102
RTVSPropertyOp7
 70
     1
102
RTVSPropertyOp8
 70
     1
102
RTVSPropertyOp9
 70
     1
102
RTVSPropertyOp10
 70
     1
102
RTVSPropertyOp11
 70
     1
102
RTVSPropertyOp12
 70
     1
102
RTVSPropertyOp13
 70
     1
102
RTVSPropertyOp14
 70
     1
102
RTVSPropertyOp15
 70
     1
102
RTVSPropertyOp16
 70
     1
102
RTVSPropertyOp17
 70
     1
102
RTVSPropertyOp18
 70
     1
102
RTVSPropertyOp19
 70
     1
102
RTVSPropertyOp20
 70
     1
102
RTVSPropertyOp21
 70
     1
102
RTVSPropertyOp22
 70
     1
102
RTVSPropertyOp23
 70
     1
102
RTVSPropertyOp24
 70
     1
102
RTVSPropertyOp25
 70
     1
102
RTVSPropertyOp26
 70
     1
102
RTVSPropertyOp27
 70
     1
  0
XRECORD
  5
166F
102
{ACAD_REACTORS
330
166E
102
}
330
166E
100
AcDbXrecord
280
     1
102
RTVSPropertyOp0
 70
     1
102
RTVSPropertyOp1
 70
     1
102
RTVSPropertyOp2
 70
     1
102
RTVSPropertyOp3
 70
     1
102
RTVSPropertyOp4
 70
     1
102
RTVSPropertyOp5
 70
     1
102
RTVSPropertyOp6
 70
     1
102
RTVSPropertyOp7
 70
     1
102
RTVSPropertyOp8
 70
     1
102
RTVSPropertyOp9
 70
     1
102
RTVSPropertyOp10
 70
     1
102
RTVSPropertyOp11
 70
     1
102
RTVSPropertyOp12
 70
     1
102
RTVSPropertyOp13
 70
     1
102
RTVSPropertyOp14
 70
     1
102
RTVSPropertyOp15
 70
     1
102
RTVSPropertyOp16
 70
     1
102
RTVSPropertyOp17
 70
     1
102
RTVSPropertyOp18
 70
     1
102
RTVSPropertyOp19
 70
     1
102
RTVSPropertyOp20
 70
     1
102
RTVSPropertyOp21
 70
     1
102
RTVSPropertyOp22
 70
     1
102
RTVSPropertyOp23
 70
     1
102
RTVSPropertyOp24
 70
     1
102
RTVSPropertyOp25
 70
     1
102
RTVSPropertyOp26
 70
     1
102
RTVSPropertyOp27
 70
     1
  0
XRECORD
  5
1677
102
{ACAD_REACTORS
330
1676
102
}
330
1676
100
AcDbXrecord
280
     1
102
RTVSPropertyOp0
 70
     1
102
RTVSPropertyOp1
 70
     1
102
RTVSPropertyOp2
 70
     1
102
RTVSPropertyOp3
 70
     1
102
RTVSPropertyOp4
 70
     1
102
RTVSPropertyOp5
 70
     1
102
RTVSPropertyOp6
 70
     1
102
RTVSPropertyOp7
 70
     1
102
RTVSPropertyOp8
 70
     1
102
RTVSPropertyOp9
 70
     1
102
RTVSPropertyOp10
 70
     1
102
RTVSPropertyOp11
 70
     1
102
RTVSPropertyOp12
 70
     1
102
RTVSPropertyOp13
 70
     1
102
RTVSPropertyOp14
 70
     1
102
RTVSPropertyOp15
 70
     1
102
RTVSPropertyOp16
 70
     1
102
RTVSPropertyOp17
 70
     1
102
RTVSPropertyOp18
 70
     1
102
RTVSPropertyOp19
 70
     1
102
RTVSPropertyOp20
 70
     1
102
RTVSPropertyOp21
 70
     1
102
RTVSPropertyOp22
 70
     1
102
RTVSPropertyOp23
 70
     1
102
RTVSPropertyOp24
 70
     1
102
RTVSPropertyOp25
 70
     1
102
RTVSPropertyOp26
 70
     1
102
RTVSPropertyOp27
 70
     1
  0
XRECORD
  5
167F
102
{ACAD_REACTORS
330
167E
102
}
330
167E
100
AcDbXrecord
280
     1
102
RTVSPropertyOp0
 70
     1
102
RTVSPropertyOp1
 70
     1
102
RTVSPropertyOp2
 70
     1
102
RTVSPropertyOp3
 70
     1
102
RTVSPropertyOp4
 70
     1
102
RTVSPropertyOp5
 70
     1
102
RTVSPropertyOp6
 70
     1
102
RTVSPropertyOp7
 70
     1
102
RTVSPropertyOp8
 70
     1
102
RTVSPropertyOp9
 70
     1
102
RTVSPropertyOp10
 70
     1
102
RTVSPropertyOp11
 70
     1
102
RTVSPropertyOp12
 70
     1
102
RTVSPropertyOp13
 70
     1
102
RTVSPropertyOp14
 70
     1
102
RTVSPropertyOp15
 70
     1
102
RTVSPropertyOp16
 70
     1
102
RTVSPropertyOp17
 70
     1
102
RTVSPropertyOp18
 70
     1
102
RTVSPropertyOp19
 70
     1
102
RTVSPropertyOp20
 70
     1
102
RTVSPropertyOp21
 70
     1
102
RTVSPropertyOp22
 70
     1
102
RTVSPropertyOp23
 70
     1
102
RTVSPropertyOp24
 70
     1
102
RTVSPropertyOp25
 70
     1
102
RTVSPropertyOp26
 70
     1
102
RTVSPropertyOp27
 70
     1
  0
XRECORD
  5
1673
102
{ACAD_REACTORS
330
1672
102
}
330
1672
100
AcDbXrecord
280
     1
102
RTVSPropertyOp0
 70
     1
102
RTVSPropertyOp1
 70
     1
102
RTVSPropertyOp2
 70
     1
102
RTVSPropertyOp3
 70
     1
102
RTVSPropertyOp4
 70
     1
102
RTVSPropertyOp5
 70
     1
102
RTVSPropertyOp6
 70
     1
102
RTVSPropertyOp7
 70
     1
102
RTVSPropertyOp8
 70
     1
102
RTVSPropertyOp9
 70
     1
102
RTVSPropertyOp10
 70
     1
102
RTVSPropertyOp11
 70
     1
102
RTVSPropertyOp12
 70
     1
102
RTVSPropertyOp13
 70
     1
102
RTVSPropertyOp14
 70
     1
102
RTVSPropertyOp15
 70
     1
102
RTVSPropertyOp16
 70
     1
102
RTVSPropertyOp17
 70
     1
102
RTVSPropertyOp18
 70
     1
102
RTVSPropertyOp19
 70
     1
102
RTVSPropertyOp20
 70
     1
102
RTVSPropertyOp21
 70
     1
102
RTVSPropertyOp22
 70
     1
102
RTVSPropertyOp23
 70
     1
102
RTVSPropertyOp24
 70
     1
102
RTVSPropertyOp25
 70
     1
102
RTVSPropertyOp26
 70
     1
102
RTVSPropertyOp27
 70
     1
  0
XRECORD
  5
1675
102
{ACAD_REACTORS
330
1674
102
}
330
1674
100
AcDbXrecord
280
     1
102
RTVSPropertyOp0
 70
     1
102
RTVSPropertyOp1
 70
     1
102
RTVSPropertyOp2
 70
     1
102
RTVSPropertyOp3
 70
     1
102
RTVSPropertyOp4
 70
     1
102
RTVSPropertyOp5
 70
     1
102
RTVSPropertyOp6
 70
     1
102
RTVSPropertyOp7
 70
     1
102
RTVSPropertyOp8
 70
     1
102
RTVSPropertyOp9
 70
     1
102
RTVSPropertyOp10
 70
     1
102
RTVSPropertyOp11
 70
     1
102
RTVSPropertyOp12
 70
     1
102
RTVSPropertyOp13
 70
     1
102
RTVSPropertyOp14
 70
     1
102
RTVSPropertyOp15
 70
     1
102
RTVSPropertyOp16
 70
     1
102
RTVSPropertyOp17
 70
     1
102
RTVSPropertyOp18
 70
     1
102
RTVSPropertyOp19
 70
     1
102
RTVSPropertyOp20
 70
     1
102
RTVSPropertyOp21
 70
     1
102
RTVSPropertyOp22
 70
     1
102
RTVSPropertyOp23
 70
     1
102
RTVSPropertyOp24
 70
     1
102
RTVSPropertyOp25
 70
     1
102
RTVSPropertyOp26
 70
     1
102
RTVSPropertyOp27
 70
     1
  0
XRECORD
  5
1685
102
{ACAD_REACTORS
330
1684
102
}
330
1684
100
AcDbXrecord
280
     1
102
RTVSPropertyOp0
 70
     0
102
RTVSPropertyOp1
 70
     0
102
RTVSPropertyOp2
 70
     0
102
RTVSPropertyOp3
 70
     0
102
RTVSPropertyOp4
 70
     0
102
RTVSPropertyOp5
 70
     0
102
RTVSPropertyOp6
 70
     0
102
RTVSPropertyOp7
 70
     0
102
RTVSPropertyOp8
 70
     0
102
RTVSPropertyOp9
 70
     0
102
RTVSPropertyOp10
 70
     0
102
RTVSPropertyOp11
 70
     0
102
RTVSPropertyOp12
 70
     0
102
RTVSPropertyOp13
 70
     0
102
RTVSPropertyOp14
 70
     2
102
RTVSPropertyOp15
 70
     0
102
RTVSPropertyOp16
 70
     0
102
RTVSPropertyOp17
 70
     0
102
RTVSPropertyOp18
 70
     0
102
RTVSPropertyOp19
 70
     0
102
RTVSPropertyOp20
 70
     0
102
RTVSPropertyOp21
 70
     0
102
RTVSPropertyOp22
 70
     0
102
RTVSPropertyOp23
 70
     0
102
RTVSPropertyOp24
 70
     0
102
RTVSPropertyOp25
 70
     0
102
RTVSPropertyOp26
 70
     0
102
RTVSPropertyOp27
 70
     0
  0
XRECORD
  5
167D
102
{ACAD_REACTORS
330
167C
102
}
330
167C
100
AcDbXrecord
280
     1
102
RTVSPropertyOp0
 70
     1
102
RTVSPropertyOp1
 70
     1
102
RTVSPropertyOp2
 70
     1
102
RTVSPropertyOp3
 70
     1
102
RTVSPropertyOp4
 70
     1
102
RTVSPropertyOp5
 70
     1
102
RTVSPropertyOp6
 70
     1
102
RTVSPropertyOp7
 70
     1
102
RTVSPropertyOp8
 70
     1
102
RTVSPropertyOp9
 70
     1
102
RTVSPropertyOp10
 70
     1
102
RTVSPropertyOp11
 70
     1
102
RTVSPropertyOp12
 70
     1
102
RTVSPropertyOp13
 70
     1
102
RTVSPropertyOp14
 70
     1
102
RTVSPropertyOp15
 70
     1
102
RTVSPropertyOp16
 70
     1
102
RTVSPropertyOp17
 70
     1
102
RTVSPropertyOp18
 70
     1
102
RTVSPropertyOp19
 70
     1
102
RTVSPropertyOp20
 70
     1
102
RTVSPropertyOp21
 70
     1
102
RTVSPropertyOp22
 70
     1
102
RTVSPropertyOp23
 70
     1
102
RTVSPropertyOp24
 70
     1
102
RTVSPropertyOp25
 70
     1
102
RTVSPropertyOp26
 70
     1
102
RTVSPropertyOp27
 70
     1
  0
XRECORD
  5
1667
102
{ACAD_REACTORS
330
1666
102
}
330
1666
100
AcDbXrecord
280
     1
102
RTVSPropertyOp0
 70
     1
102
RTVSPropertyOp1
 70
     1
102
RTVSPropertyOp2
 70
     1
102
RTVSPropertyOp3
 70
     1
102
RTVSPropertyOp4
 70
     1
102
RTVSPropertyOp5
 70
     1
102
RTVSPropertyOp6
 70
     1
102
RTVSPropertyOp7
 70
     1
102
RTVSPropertyOp8
 70
     1
102
RTVSPropertyOp9
 70
     1
102
RTVSPropertyOp10
 70
     1
102
RTVSPropertyOp11
 70
     1
102
RTVSPropertyOp12
 70
     1
102
RTVSPropertyOp13
 70
     1
102
RTVSPropertyOp14
 70
     1
102
RTVSPropertyOp15
 70
     1
102
RTVSPropertyOp16
 70
     1
102
RTVSPropertyOp17
 70
     1
102
RTVSPropertyOp18
 70
     1
102
RTVSPropertyOp19
 70
     1
102
RTVSPropertyOp20
 70
     1
102
RTVSPropertyOp21
 70
     1
102
RTVSPropertyOp22
 70
     1
102
RTVSPropertyOp23
 70
     1
102
RTVSPropertyOp24
 70
     1
102
RTVSPropertyOp25
 70
     1
102
RTVSPropertyOp26
 70
     1
102
RTVSPropertyOp27
 70
     1
  0
XRECORD
  5
1669
102
{ACAD_REACTORS
330
1668
102
}
330
1668
100
AcDbXrecord
280
     1
102
RTVSPropertyOp0
 70
     1
102
RTVSPropertyOp1
 70
     1
102
RTVSPropertyOp2
 70
     1
102
RTVSPropertyOp3
 70
     1
102
RTVSPropertyOp4
 70
     1
102
RTVSPropertyOp5
 70
     1
102
RTVSPropertyOp6
 70
     1
102
RTVSPropertyOp7
 70
     1
102
RTVSPropertyOp8
 70
     1
102
RTVSPropertyOp9
 70
     1
102
RTVSPropertyOp10
 70
     1
102
RTVSPropertyOp11
 70
     1
102
RTVSPropertyOp12
 70
     1
102
RTVSPropertyOp13
 70
     1
102
RTVSPropertyOp14
 70
     1
102
RTVSPropertyOp15
 70
     1
102
RTVSPropertyOp16
 70
     1
102
RTVSPropertyOp17
 70
     1
102
RTVSPropertyOp18
 70
     1
102
RTVSPropertyOp19
 70
     1
102
RTVSPropertyOp20
 70
     1
102
RTVSPropertyOp21
 70
     1
102
RTVSPropertyOp22
 70
     1
102
RTVSPropertyOp23
 70
     1
102
RTVSPropertyOp24
 70
     1
102
RTVSPropertyOp25
 70
     1
102
RTVSPropertyOp26
 70
     1
102
RTVSPropertyOp27
 70
     1
  0
XRECORD
  5
166B
102
{ACAD_REACTORS
330
166A
102
}
330
166A
100
AcDbXrecord
280
     1
102
RTVSPropertyOp0
 70
     1
102
RTVSPropertyOp1
 70
     1
102
RTVSPropertyOp2
 70
     1
102
RTVSPropertyOp3
 70
     1
102
RTVSPropertyOp4
 70
     1
102
RTVSPropertyOp5
 70
     1
102
RTVSPropertyOp6
 70
     1
102
RTVSPropertyOp7
 70
     1
102
RTVSPropertyOp8
 70
     1
102
RTVSPropertyOp9
 70
     1
102
RTVSPropertyOp10
 70
     1
102
RTVSPropertyOp11
 70
     1
102
RTVSPropertyOp12
 70
     1
102
RTVSPropertyOp13
 70
     1
102
RTVSPropertyOp14
 70
     1
102
RTVSPropertyOp15
 70
     1
102
RTVSPropertyOp16
 70
     1
102
RTVSPropertyOp17
 70
     1
102
RTVSPropertyOp18
 70
     1
102
RTVSPropertyOp19
 70
     1
102
RTVSPropertyOp20
 70
     1
102
RTVSPropertyOp21
 70
     1
102
RTVSPropertyOp22
 70
     1
102
RTVSPropertyOp23
 70
     1
102
RTVSPropertyOp24
 70
     1
102
RTVSPropertyOp25
 70
     1
102
RTVSPropertyOp26
 70
     1
102
RTVSPropertyOp27
 70
     1
  0
XRECORD
  5
166D
102
{ACAD_REACTORS
330
166C
102
}
330
166C
100
AcDbXrecord
280
     1
102
RTVSPropertyOp0
 70
     1
102
RTVSPropertyOp1
 70
     1
102
RTVSPropertyOp2
 70
     1
102
RTVSPropertyOp3
 70
     1
102
RTVSPropertyOp4
 70
     1
102
RTVSPropertyOp5
 70
     1
102
RTVSPropertyOp6
 70
     1
102
RTVSPropertyOp7
 70
     1
102
RTVSPropertyOp8
 70
     1
102
RTVSPropertyOp9
 70
     1
102
RTVSPropertyOp10
 70
     1
102
RTVSPropertyOp11
 70
     1
102
RTVSPropertyOp12
 70
     1
102
RTVSPropertyOp13
 70
     1
102
RTVSPropertyOp14
 70
     1
102
RTVSPropertyOp15
 70
     1
102
RTVSPropertyOp16
 70
     1
102
RTVSPropertyOp17
 70
     1
102
RTVSPropertyOp18
 70
     1
102
RTVSPropertyOp19
 70
     1
102
RTVSPropertyOp20
 70
     1
102
RTVSPropertyOp21
 70
     1
102
RTVSPropertyOp22
 70
     1
102
RTVSPropertyOp23
 70
     1
102
RTVSPropertyOp24
 70
     1
102
RTVSPropertyOp25
 70
     1
102
RTVSPropertyOp26
 70
     1
102
RTVSPropertyOp27
 70
     1
  0
XRECORD
  5
1681
102
{ACAD_REACTORS
330
1680
102
}
330
1680
100
AcDbXrecord
280
     1
102
RTVSPropertyOp0
 70
     0
102
RTVSPropertyOp1
 70
     0
102
RTVSPropertyOp2
 70
     0
102
RTVSPropertyOp3
 70
     0
102
RTVSPropertyOp4
 70
     0
102
RTVSPropertyOp5
 70
     0
102
RTVSPropertyOp6
 70
     0
102
RTVSPropertyOp7
 70
     0
102
RTVSPropertyOp8
 70
     0
102
RTVSPropertyOp9
 70
     0
102
RTVSPropertyOp10
 70
     0
102
RTVSPropertyOp11
 70
     0
102
RTVSPropertyOp12
 70
     0
102
RTVSPropertyOp13
 70
     0
102
RTVSPropertyOp14
 70
     2
102
RTVSPropertyOp15
 70
     0
102
RTVSPropertyOp16
 70
     0
102
RTVSPropertyOp17
 70
     0
102
RTVSPropertyOp18
 70
     0
102
RTVSPropertyOp19
 70
     0
102
RTVSPropertyOp20
 70
     0
102
RTVSPropertyOp21
 70
     0
102
RTVSPropertyOp22
 70
     0
102
RTVSPropertyOp23
 70
     0
102
RTVSPropertyOp24
 70
     0
102
RTVSPropertyOp25
 70
     0
102
RTVSPropertyOp26
 70
     0
102
RTVSPropertyOp27
 70
     0
  0
XRECORD
  5
167B
102
{ACAD_REACTORS
330
167A
102
}
330
167A
100
AcDbXrecord
280
     1
102
RTVSPropertyOp0
 70
     1
102
RTVSPropertyOp1
 70
     1
102
RTVSPropertyOp2
 70
     1
102
RTVSPropertyOp3
 70
     1
102
RTVSPropertyOp4
 70
     1
102
RTVSPropertyOp5
 70
     1
102
RTVSPropertyOp6
 70
     1
102
RTVSPropertyOp7
 70
     1
102
RTVSPropertyOp8
 70
     1
102
RTVSPropertyOp9
 70
     1
102
RTVSPropertyOp10
 70
     1
102
RTVSPropertyOp11
 70
     1
102
RTVSPropertyOp12
 70
     1
102
RTVSPropertyOp13
 70
     1
102
RTVSPropertyOp14
 70
     1
102
RTVSPropertyOp15
 70
     1
102
RTVSPropertyOp16
 70
     1
102
RTVSPropertyOp17
 70
     1
102
RTVSPropertyOp18
 70
     1
102
RTVSPropertyOp19
 70
     1
102
RTVSPropertyOp20
 70
     1
102
RTVSPropertyOp21
 70
     1
102
RTVSPropertyOp22
 70
     1
102
RTVSPropertyOp23
 70
     1
102
RTVSPropertyOp24
 70
     1
102
RTVSPropertyOp25
 70
     1
102
RTVSPropertyOp26
 70
     1
102
RTVSPropertyOp27
 70
     1
  0
XRECORD
  5
1683
102
{ACAD_REACTORS
330
1682
102
}
330
1682
100
AcDbXrecord
280
     1
102
RTVSPropertyOp0
 70
     0
102
RTVSPropertyOp1
 70
     0
102
RTVSPropertyOp2
 70
     0
102
RTVSPropertyOp3
 70
     0
102
RTVSPropertyOp4
 70
     0
102
RTVSPropertyOp5
 70
     0
102
RTVSPropertyOp6
 70
     0
102
RTVSPropertyOp7
 70
     0
102
RTVSPropertyOp8
 70
     0
102
RTVSPropertyOp9
 70
     0
102
RTVSPropertyOp10
 70
     0
102
RTVSPropertyOp11
 70
     0
102
RTVSPropertyOp12
 70
     0
102
RTVSPropertyOp13
 70
     0
102
RTVSPropertyOp14
 70
     2
102
RTVSPropertyOp15
 70
     0
102
RTVSPropertyOp16
 70
     0
102
RTVSPropertyOp17
 70
     0
102
RTVSPropertyOp18
 70
     0
102
RTVSPropertyOp19
 70
     0
102
RTVSPropertyOp20
 70
     0
102
RTVSPropertyOp21
 70
     0
102
RTVSPropertyOp22
 70
     0
102
RTVSPropertyOp23
 70
     0
102
RTVSPropertyOp24
 70
     0
102
RTVSPropertyOp25
 70
     0
102
RTVSPropertyOp26
 70
     0
102
RTVSPropertyOp27
 70
     0
  0
XRECORD
  5
1663
102
{ACAD_REACTORS
330
1662
102
}
330
1662
100
AcDbXrecord
280
     1
102
RTVSPropertyOp0
 70
     1
102
RTVSPropertyOp1
 70
     1
102
RTVSPropertyOp2
 70
     1
102
RTVSPropertyOp3
 70
     1
102
RTVSPropertyOp4
 70
     1
102
RTVSPropertyOp5
 70
     1
102
RTVSPropertyOp6
 70
     1
102
RTVSPropertyOp7
 70
     1
102
RTVSPropertyOp8
 70
     1
102
RTVSPropertyOp9
 70
     1
102
RTVSPropertyOp10
 70
     1
102
RTVSPropertyOp11
 70
     1
102
RTVSPropertyOp12
 70
     1
102
RTVSPropertyOp13
 70
     1
102
RTVSPropertyOp14
 70
     1
102
RTVSPropertyOp15
 70
     1
102
RTVSPropertyOp16
 70
     1
102
RTVSPropertyOp17
 70
     1
102
RTVSPropertyOp18
 70
     1
102
RTVSPropertyOp19
 70
     1
102
RTVSPropertyOp20
 70
     1
102
RTVSPropertyOp21
 70
     1
102
RTVSPropertyOp22
 70
     1
102
RTVSPropertyOp23
 70
     1
102
RTVSPropertyOp24
 70
     1
102
RTVSPropertyOp25
 70
     1
102
RTVSPropertyOp26
 70
     1
102
RTVSPropertyOp27
 70
     1
  0
XRECORD
  5
1679
102
{ACAD_REACTORS
330
1678
102
}
330
1678
100
AcDbXrecord
280
     1
102
RTVSPropertyOp0
 70
     1
102
RTVSPropertyOp1
 70
     1
102
RTVSPropertyOp2
 70
     1
102
RTVSPropertyOp3
 70
     1
102
RTVSPropertyOp4
 70
     1
102
RTVSPropertyOp5
 70
     1
102
RTVSPropertyOp6
 70
     1
102
RTVSPropertyOp7
 70
     1
102
RTVSPropertyOp8
 70
     1
102
RTVSPropertyOp9
 70
     1
102
RTVSPropertyOp10
 70
     1
102
RTVSPropertyOp11
 70
     1
102
RTVSPropertyOp12
 70
     1
102
RTVSPropertyOp13
 70
     1
102
RTVSPropertyOp14
 70
     1
102
RTVSPropertyOp15
 70
     1
102
RTVSPropertyOp16
 70
     1
102
RTVSPropertyOp17
 70
     1
102
RTVSPropertyOp18
 70
     1
102
RTVSPropertyOp19
 70
     1
102
RTVSPropertyOp20
 70
     1
102
RTVSPropertyOp21
 70
     1
102
RTVSPropertyOp22
 70
     1
102
RTVSPropertyOp23
 70
     1
102
RTVSPropertyOp24
 70
     1
102
RTVSPropertyOp25
 70
     1
102
RTVSPropertyOp26
 70
     1
102
RTVSPropertyOp27
 70
     1
  0
ENDSEC
  0
EOF
