  0
SECTION
  2
HEADER
  9
$ACADVER
  1
AC1015
  9
$ACADMAINTVER
 70
    18
  9
$DWGCODEPAGE
  3
ANSI_1252
  9
$INSBASE
 10
0.0
 20
0.0
 30
0.0
  9
$EXTMIN
 10
204887.527
 20
438519.772
 30
0.0
  9
$EXTMAX
 10
205256.085
 20
438917.323
 30
0.0
  9
$LIMMIN
 10
203987.588684
 20
437634.330184
  9
$LIMMAX
 10
206156.023316
 20
439802.764816
  9
$ORTHOMODE
 70
     0
  9
$REGENMODE
 70
     1
  9
$FILLMODE
 70
     1
  9
$QTEXTMODE
 70
     0
  9
$MIRRTEXT
 70
     0
  9
$LTSCALE
 40
1.0
  9
$ATTMODE
 70
     1
  9
$TEXTSIZE
 40
2.5
  9
$TRACEWID
 40
0.05
  9
$TEXTSTYLE
  7
Standard
  9
$CLAYER
  8
RoPlan_Legenda_Systeem_Level
  9
$CELTYPE
  6
ByLayer
  9
$CECOLOR
 62
   256
  9
$CELTSCALE
 40
1.0
  9
$DISPSILH
 70
     0
  9
$DIMSCALE
 40
1.0
  9
$DIMASZ
 40
0.18
  9
$DIMEXO
 40
0.0625
  9
$DIMDLI
 40
0.38
  9
$DIMRND
 40
0.0
  9
$DIMDLE
 40
0.0
  9
$DIMEXE
 40
0.18
  9
$DIMTP
 40
0.0
  9
$DIMTM
 40
0.0
  9
$DIMTXT
 40
0.18
  9
$DIMCEN
 40
0.09
  9
$DIMTSZ
 40
0.0
  9
$DIMTOL
 70
     0
  9
$DIMLIM
 70
     0
  9
$DIMTIH
 70
     1
  9
$DIMTOH
 70
     1
  9
$DIMSE1
 70
     0
  9
$DIMSE2
 70
     0
  9
$DIMTAD
 70
     0
  9
$DIMZIN
 70
     0
  9
$DIMBLK
  1

  9
$DIMASO
 70
     1
  9
$DIMSHO
 70
     1
  9
$DIMPOST
  1

  9
$DIMAPOST
  1

  9
$DIMALT
 70
     0
  9
$DIMALTD
 70
     2
  9
$DIMALTF
 40
25.4
  9
$DIMLFAC
 40
1.0
  9
$DIMTOFL
 70
     0
  9
$DIMTVP
 40
0.0
  9
$DIMTIX
 70
     0
  9
$DIMSOXD
 70
     0
  9
$DIMSAH
 70
     0
  9
$DIMBLK1
  1

  9
$DIMBLK2
  1

  9
$DIMSTYLE
  2
Standard
  9
$DIMCLRD
 70
     0
  9
$DIMCLRE
 70
     0
  9
$DIMCLRT
 70
     0
  9
$DIMTFAC
 40
1.0
  9
$DIMGAP
 40
0.09
  9
$DIMJUST
 70
     0
  9
$DIMSD1
 70
     0
  9
$DIMSD2
 70
     0
  9
$DIMTOLJ
 70
     1
  9
$DIMTZIN
 70
     0
  9
$DIMALTZ
 70
     0
  9
$DIMALTTZ
 70
     0
  9
$DIMUPT
 70
     0
  9
$DIMDEC
 70
     4
  9
$DIMTDEC
 70
     4
  9
$DIMALTU
 70
     2
  9
$DIMALTTD
 70
     2
  9
$DIMTXSTY
  7
Standard
  9
$DIMAUNIT
 70
     0
  9
$DIMADEC
 70
     0
  9
$DIMALTRND
 40
0.0
  9
$DIMAZIN
 70
     0
  9
$DIMDSEP
 70
    46
  9
$DIMATFIT
 70
     3
  9
$DIMFRAC
 70
     0
  9
$DIMLDRBLK
  1

  9
$DIMLUNIT
 70
     2
  9
$DIMLWD
 70
    -2
  9
$DIMLWE
 70
    -2
  9
$DIMTMOVE
 70
     0
  9
$LUNITS
 70
     2
  9
$LUPREC
 70
     3
  9
$SKETCHINC
 40
0.1
  9
$FILLETRAD
 40
0.0
  9
$AUNITS
 70
     0
  9
$AUPREC
 70
     4
  9
$MENU
  1
.
  9
$ELEVATION
 40
0.0
  9
$PELEVATION
 40
0.0
  9
$THICKNESS
 40
0.0
  9
$LIMCHECK
 70
     0
  9
$CHAMFERA
 40
0.0
  9
$CHAMFERB
 40
0.0
  9
$CHAMFERC
 40
0.0
  9
$CHAMFERD
 40
0.0
  9
$SKPOLY
 70
     0
  9
$TDCREATE
 40
2454144.819690683
  9
$TDUCREATE
 40
2454144.778024017
  9
$TDUPDATE
 40
2454144.820353692
  9
$TDUUPDATE
 40
2454144.778687026
  9
$TDINDWG
 40
0.0012795370
  9
$TDUSRTIMER
 40
0.0012793519
  9
$USRTIMER
 70
     1
  9
$ANGBASE
 50
0.0
  9
$ANGDIR
 70
     0
  9
$PDMODE
 70
     0
  9
$PDSIZE
 40
0.0
  9
$PLINEWID
 40
0.0
  9
$SPLFRAME
 70
     0
  9
$SPLINETYPE
 70
     6
  9
$SPLINESEGS
 70
     8
  9
$HANDSEED
  5
2BB9
  9
$SURFTAB1
 70
     6
  9
$SURFTAB2
 70
     6
  9
$SURFTYPE
 70
     6
  9
$SURFU
 70
     6
  9
$SURFV
 70
     6
  9
$UCSBASE
  2

  9
$UCSNAME
  2

  9
$UCSORG
 10
0.0
 20
0.0
 30
0.0
  9
$UCSXDIR
 10
1.0
 20
0.0
 30
0.0
  9
$UCSYDIR
 10
0.0
 20
1.0
 30
0.0
  9
$UCSORTHOREF
  2

  9
$UCSORTHOVIEW
 70
     0
  9
$UCSORGTOP
 10
0.0
 20
0.0
 30
0.0
  9
$UCSORGBOTTOM
 10
0.0
 20
0.0
 30
0.0
  9
$UCSORGLEFT
 10
0.0
 20
0.0
 30
0.0
  9
$UCSORGRIGHT
 10
0.0
 20
0.0
 30
0.0
  9
$UCSORGFRONT
 10
0.0
 20
0.0
 30
0.0
  9
$UCSORGBACK
 10
0.0
 20
0.0
 30
0.0
  9
$PUCSBASE
  2

  9
$PUCSNAME
  2

  9
$PUCSORG
 10
0.0
 20
0.0
 30
0.0
  9
$PUCSXDIR
 10
1.0
 20
0.0
 30
0.0
  9
$PUCSYDIR
 10
0.0
 20
1.0
 30
0.0
  9
$PUCSORTHOREF
  2

  9
$PUCSORTHOVIEW
 70
     0
  9
$PUCSORGTOP
 10
0.0
 20
0.0
 30
0.0
  9
$PUCSORGBOTTOM
 10
0.0
 20
0.0
 30
0.0
  9
$PUCSORGLEFT
 10
0.0
 20
0.0
 30
0.0
  9
$PUCSORGRIGHT
 10
0.0
 20
0.0
 30
0.0
  9
$PUCSORGFRONT
 10
0.0
 20
0.0
 30
0.0
  9
$PUCSORGBACK
 10
0.0
 20
0.0
 30
0.0
  9
$USERI1
 70
     0
  9
$USERI2
 70
     0
  9
$USERI3
 70
     0
  9
$USERI4
 70
     0
  9
$USERI5
 70
     0
  9
$USERR1
 40
0.0
  9
$USERR2
 40
0.0
  9
$USERR3
 40
0.0
  9
$USERR4
 40
0.0
  9
$USERR5
 40
0.0
  9
$WORLDVIEW
 70
     1
  9
$SHADEDGE
 70
     3
  9
$SHADEDIF
 70
    70
  9
$TILEMODE
 70
     1
  9
$MAXACTVP
 70
    64
  9
$PINSBASE
 10
0.0
 20
0.0
 30
0.0
  9
$PLIMCHECK
 70
     0
  9
$PEXTMIN
 10
1.049744
 20
0.799667
 30
-0.001526
  9
$PEXTMAX
 10
9.450623
 20
7.200577
 30
0.0
  9
$PLIMMIN
 10
-0.25
 20
-0.25
  9
$PLIMMAX
 10
10.75
 20
8.25
  9
$UNITMODE
 70
     0
  9
$VISRETAIN
 70
     1
  9
$PLINEGEN
 70
     0
  9
$PSLTSCALE
 70
     0
  9
$TREEDEPTH
 70
  3020
  9
$CMLSTYLE
  2
Standard
  9
$CMLJUST
 70
     0
  9
$CMLSCALE
 40
1.0
  9
$PROXYGRAPHICS
 70
     1
  9
$MEASUREMENT
 70
     0
  9
$CELWEIGHT
370
    -1
  9
$ENDCAPS
280
     0
  9
$JOINSTYLE
280
     0
  9
$LWDISPLAY
290
     1
  9
$INSUNITS
 70
     6
  9
$HYPERLINKBASE
  1

  9
$STYLESHEET
  1

  9
$XEDIT
290
     1
  9
$CEPSNTYPE
380
     0
  9
$PSTYLEMODE
290
     1
  9
$FINGERPRINTGUID
  2
{4789B59B-0403-4F11-B35F-CA5C6998F91D}
  9
$VERSIONGUID
  2
{82C521FC-BF81-46B3-825E-420B6BD93A99}
  9
$EXTNAMES
290
     1
  9
$PSVPSCALE
 40
0.0
  9
$OLESTARTUP
290
     0
  0
ENDSEC
  0
SECTION
  2
CLASSES
  0
CLASS
  1
ACDBDICTIONARYWDFLT
  2
AcDbDictionaryWithDefault
  3
ObjectDBX Classes
 90
        0
280
     0
281
     0
  0
CLASS
  1
ACDBPLACEHOLDER
  2
AcDbPlaceHolder
  3
ObjectDBX Classes
 90
        0
280
     0
281
     0
  0
CLASS
  1
LAYOUT
  2
AcDbLayout
  3
ObjectDBX Classes
 90
        0
280
     0
281
     0
  0
CLASS
  1
DICTIONARYVAR
  2
AcDbDictionaryVar
  3
ObjectDBX Classes
 90
        0
280
     0
281
     0
  0
CLASS
  1
TABLESTYLE
  2
AcDbTableStyle
  3
ObjectDBX Classes
 90
     4095
280
     0
281
     0
  0
CLASS
  1
MATERIAL
  2
AcDbMaterial
  3
ObjectDBX Classes
 90
     1153
280
     0
281
     0
  0
CLASS
  1
VISUALSTYLE
  2
AcDbVisualStyle
  3
ObjectDBX Classes
 90
     4095
280
     0
281
     0
  0
CLASS
  1
SCALE
  2
AcDbScale
  3
ObjectDBX Classes
 90
     1153
280
     0
281
     0
  0
CLASS
  1
MLEADERSTYLE
  2
AcDbMLeaderStyle
  3
ACDB_MLEADERSTYLE_CLASS
 90
     4095
280
     0
281
     0
  0
CLASS
  1
CELLSTYLEMAP
  2
AcDbCellStyleMap
  3
ObjectDBX Classes
 90
     1152
280
     0
281
     0
  0
ENDSEC
  0
SECTION
  2
TABLES
  0
TABLE
  2
VPORT
  5
29FC
330
0
100
AcDbSymbolTable
 70
     1
  0
VPORT
  5
29C5
330
29FC
100
AcDbSymbolTableRecord
100
AcDbViewportTableRecord
  2
*ACTIVE
 70
     0
 10
0.0
 20
0.0
 11
1.0
 21
1.0
 12
205056.887963
 22
438780.27837
 13
0.0
 23
0.0
 14
1.0
 24
1.0
 15
5.0
 25
5.0
 16
0.0
 26
0.0
 36
1.0
 17
0.0
 27
0.0
 37
0.0
 40
232.793589
 41
1.449064
 42
50.0
 43
0.0
 44
0.0
 50
0.0
 51
0.0
 71
     0
 72
   100
 73
     1
 74
     0
 75
     0
 76
     1
 77
     0
 78
     1
281
     0
 65
     1
110
0.0
120
0.0
130
0.0
111
1.0
121
0.0
131
0.0
112
0.0
122
1.0
132
0.0
 79
     0
146
0.0
  0
ENDTAB
  0
TABLE
  2
LTYPE
  5
29F7
330
0
100
AcDbSymbolTable
 70
     3
  0
LTYPE
  5
29F8
330
29F7
100
AcDbSymbolTableRecord
100
AcDbLinetypeTableRecord
  2
ByBlock
 70
     0
  3

 72
    65
 73
     0
 40
0.0
  0
LTYPE
  5
29F9
330
29F7
100
AcDbSymbolTableRecord
100
AcDbLinetypeTableRecord
  2
ByLayer
 70
     0
  3

 72
    65
 73
     0
 40
0.0
  0
LTYPE
  5
29E6
330
29F7
100
AcDbSymbolTableRecord
100
AcDbLinetypeTableRecord
  2
Continuous
 70
     0
  3
Solid line
 72
    65
 73
     0
 40
0.0
  0
LTYPE
  5
28E5
330
29F7
100
AcDbSymbolTableRecord
100
AcDbLinetypeTableRecord
  2
RASTER
 70
     0
  3

 72
    65
 73
     3
 40
60.0
 49
40.0
 74
     0
 49
-10.0
 74
     2
 75
     0
340
2A43
 46
5.0
 50
0.0
 44
-5.0
 45
0.0
  9
*
 49
-10.0
 74
     0
  0
LTYPE
  5
2939
330
29F7
100
AcDbSymbolTableRecord
100
AcDbLinetypeTableRecord
  2
HAAG
 70
     0
  3

 72
    65
 73
     3
 40
60.0
 49
40.0
 74
     0
 49
-10.0
 74
     2
 75
     0
340
2A43
 46
3.5
 50
0.0
 44
-3.5
 45
-3.5
  9
*
 49
-10.0
 74
     0
  0
ENDTAB
  0
TABLE
  2
LAYER
  5
29F1
102
{ACAD_XDICTIONARY
360
29F2
102
}
330
0
100
AcDbSymbolTable
 70
    33
  0
LAYER
  5
29D9
330
29F1
100
AcDbSymbolTableRecord
100
AcDbLayerTableRecord
  2
0
 70
     0
 62
     5
  6
Continuous
370
    40
390
29DA
  0
LAYER
  5
248E
330
29F1
100
AcDbSymbolTableRecord
100
AcDbLayerTableRecord
  2
EB_Agrarisch
 70
     0
 62
     7
  6
Continuous
370
     0
390
29DA
  0
LAYER
  5
1297
330
29F1
100
AcDbSymbolTableRecord
100
AcDbLayerTableRecord
  2
hulplijn afbeelding
 70
     0
 62
     5
  6
Continuous
370
    40
390
29DA
  0
LAYER
  5
135B
330
29F1
100
AcDbSymbolTableRecord
100
AcDbLayerTableRecord
  2
hulplijn afbeelding 2
 70
     0
 62
     5
  6
Continuous
370
    40
390
29DA
  0
LAYER
  5
2669
330
29F1
100
AcDbSymbolTableRecord
100
AcDbLayerTableRecord
  2
RoPlan_Legenda_Systeem_Level
 70
     0
 62
     7
  6
Continuous
370
     0
390
29DA
  0
LAYER
  5
27F6
330
29F1
100
AcDbSymbolTableRecord
100
AcDbLayerTableRecord
  2
hulplijn bestemming
 70
     0
 62
     3
  6
Continuous
370
    40
390
29DA
  0
LAYER
  5
17C3
330
29F1
100
AcDbSymbolTableRecord
100
AcDbLayerTableRecord
  2
Bouwvlak
 70
     0
 62
     7
  6
Continuous
370
     0
390
29DA
  0
LAYER
  5
17D9
330
29F1
100
AcDbSymbolTableRecord
100
AcDbLayerTableRecord
  2
Functieaanduiding
 70
     0
 62
     7
  6
Continuous
370
     0
390
29DA
  0
LAYER
  5
17E3
330
29F1
100
AcDbSymbolTableRecord
100
AcDbLayerTableRecord
  2
EB_Wonen - Woongebouw
 70
     0
 62
     7
  6
Continuous
370
     0
390
29DA
  0
LAYER
  5
1815
330
29F1
100
AcDbSymbolTableRecord
100
AcDbLayerTableRecord
  2
EB_Wonen
 70
     0
 62
     7
  6
Continuous
370
     0
390
29DA
  0
LAYER
  5
1833
330
29F1
100
AcDbSymbolTableRecord
100
AcDbLayerTableRecord
  2
Bestemmingsplangebied
 70
     0
 62
     7
  6
Continuous
370
     0
390
29DA
  0
LAYER
  5
183E
330
29F1
100
AcDbSymbolTableRecord
100
AcDbLayerTableRecord
  2
Maatvoering
 70
     0
 62
     7
  6
Continuous
370
     0
390
29DA
  0
LAYER
  5
1847
330
29F1
100
AcDbSymbolTableRecord
100
AcDbLayerTableRecord
  2
Maatvoering_symbolen
 70
     0
 62
     7
  6
Continuous
370
     0
390
29DA
  0
LAYER
  5
280F
330
29F1
100
AcDbSymbolTableRecord
100
AcDbLayerTableRecord
  2
hulplijn bouwvlak
 70
     0
 62
     5
  6
Continuous
370
    40
390
29DA
  0
LAYER
  5
29B5
330
29F1
100
AcDbSymbolTableRecord
100
AcDbLayerTableRecord
  2
S02
 70
     0
 62
     7
  6
Continuous
370
     0
390
29DA
  0
LAYER
  5
199B
330
29F1
100
AcDbSymbolTableRecord
100
AcDbLayerTableRecord
  2
Level 37
 70
     0
 62
     7
  6
Continuous
370
     0
390
29DA
1001
MStation
1000
Trnsp
1002
{
1040
0.5
1002
}
  0
LAYER
  5
1A80
330
29F1
100
AcDbSymbolTableRecord
100
AcDbLayerTableRecord
  2
Kader
 70
     0
 62
     7
  6
Continuous
370
     0
390
29DA
  0
LAYER
  5
1A8E
330
29F1
100
AcDbSymbolTableRecord
100
AcDbLayerTableRecord
  2
Onderhoek
 70
     0
 62
     7
  6
Continuous
370
     0
390
29DA
  0
LAYER
  5
2365
330
29F1
100
AcDbSymbolTableRecord
100
AcDbLayerTableRecord
  2
41
 70
     0
 62
   252
  6
Continuous
370
    13
390
29DA
  0
LAYER
  5
29B6
330
29F1
100
AcDbSymbolTableRecord
100
AcDbLayerTableRecord
  2
S05
 70
     0
 62
     7
  6
Continuous
370
     0
390
29DA
  0
LAYER
  5
29B7
330
29F1
100
AcDbSymbolTableRecord
100
AcDbLayerTableRecord
  2
B03_F
 70
     0
 62
    30
  6
Continuous
370
     0
390
29DA
  0
LAYER
  5
29B8
330
29F1
100
AcDbSymbolTableRecord
100
AcDbLayerTableRecord
  2
B01_T
 70
     0
 62
     1
  6
Continuous
370
     0
390
29DA
  0
LAYER
  5
29B9
330
29F1
100
AcDbSymbolTableRecord
100
AcDbLayerTableRecord
  2
T02_F
 70
     0
 62
     7
  6
RASTER
370
     0
390
29DA
  0
LAYER
  5
29BA
330
29F1
100
AcDbSymbolTableRecord
100
AcDbLayerTableRecord
  2
B14_F
 70
     0
 62
    30
  6
Continuous
370
     0
390
29DA
  0
LAYER
  5
29BB
330
29F1
100
AcDbSymbolTableRecord
100
AcDbLayerTableRecord
  2
T09_F
 70
     0
 62
     5
  6
Continuous
370
     0
390
29DA
  0
LAYER
  5
29BC
330
29F1
100
AcDbSymbolTableRecord
100
AcDbLayerTableRecord
  2
T03_F
 70
     0
 62
     7
  6
RASTER
370
     0
390
29DA
  0
LAYER
  5
29BD
330
29F1
100
AcDbSymbolTableRecord
100
AcDbLayerTableRecord
  2
V00_F
 70
     0
 62
     7
  6
Continuous
370
     0
390
29DA
  0
LAYER
  5
29BE
330
29F1
100
AcDbSymbolTableRecord
100
AcDbLayerTableRecord
  2
S01
 70
     0
 62
     7
  6
Continuous
370
     0
390
29DA
  0
LAYER
  5
29BF
330
29F1
100
AcDbSymbolTableRecord
100
AcDbLayerTableRecord
  2
T09_T
 70
     0
 62
     5
  6
Continuous
370
     0
390
29DA
  0
LAYER
  5
29C0
330
29F1
100
AcDbSymbolTableRecord
100
AcDbLayerTableRecord
  2
T04_F
 70
     0
 62
     3
  6
HAAG
370
     0
390
29DA
  0
LAYER
  5
29C1
330
29F1
100
AcDbSymbolTableRecord
100
AcDbLayerTableRecord
  2
V00_T
 70
     0
 62
     7
  6
Continuous
370
     0
390
29DA
  0
LAYER
  5
29C2
330
29F1
100
AcDbSymbolTableRecord
100
AcDbLayerTableRecord
  2
W01_F
 70
     0
 62
     5
  6
Continuous
370
     0
390
29DA
  0
LAYER
  5
29C3
330
29F1
100
AcDbSymbolTableRecord
100
AcDbLayerTableRecord
  2
Z02
 70
     0
 62
     7
  6
Continuous
370
     0
390
29DA
  0
ENDTAB
  0
TABLE
  2
STYLE
  5
29F4
330
0
100
AcDbSymbolTable
 70
     3
  0
STYLE
  5
29F5
330
29F4
100
AcDbSymbolTableRecord
100
AcDbTextStyleTableRecord
  2
Standard
 70
     0
 40
0.0
 41
1.0
 50
0.0
 71
     0
 42
2.5
  3
txt.shx
  4

  0
STYLE
  5
28CE
330
29F4
100
AcDbSymbolTableRecord
100
AcDbTextStyleTableRecord
  2
ISO
 70
     0
 40
1.8
 41
1.0
 50
0.0
 71
     0
 42
0.2
  3
isocp.shx
  4

  0
STYLE
  5
2A43
330
29F4
100
AcDbSymbolTableRecord
100
AcDbTextStyleTableRecord
  2
Style-TOPOCAD
 70
     0
 40
0.0
 41
1.0
 50
0.0
 71
     0
 42
0.2
  3
TOPOCAD.shx
  4

  0
ENDTAB
  0
TABLE
  2
VIEW
  5
29FA
330
0
100
AcDbSymbolTable
 70
     0
  0
ENDTAB
  0
TABLE
  2
UCS
  5
29FB
330
0
100
AcDbSymbolTable
 70
     0
  0
ENDTAB
  0
TABLE
  2
APPID
  5
2A00
330
0
100
AcDbSymbolTable
 70
     8
  0
APPID
  5
2A01
330
2A00
100
AcDbSymbolTableRecord
100
AcDbRegAppTableRecord
  2
ACAD
 70
     0
  0
APPID
  5
29F0
330
2A00
100
AcDbSymbolTableRecord
100
AcDbRegAppTableRecord
  2
ACAD_PSEXT
 70
     0
  0
APPID
  5
2A44
330
2A00
100
AcDbSymbolTableRecord
100
AcDbRegAppTableRecord
  2
MStation
 70
     0
  0
APPID
  5
28C6
330
2A00
100
AcDbSymbolTableRecord
100
AcDbRegAppTableRecord
  2
TOPOCAD_8_LKI
 70
     0
  0
APPID
  5
28C7
330
2A00
100
AcDbSymbolTableRecord
100
AcDbRegAppTableRecord
  2
TOPOCAD_8_GBKN
 70
     0
  0
APPID
  5
28C8
330
2A00
100
AcDbSymbolTableRecord
100
AcDbRegAppTableRecord
  2
TOPOCAD_8_NGDW
 70
     0
  0
APPID
  5
28C9
330
2A00
100
AcDbSymbolTableRecord
100
AcDbRegAppTableRecord
  2
TOPOCAD_8
 70
     0
  0
APPID
  5
2B1C
330
2A00
100
AcDbSymbolTableRecord
100
AcDbRegAppTableRecord
  2
ACAD_MLEADERVER
 70
     0
  0
ENDTAB
  0
TABLE
  2
DIMSTYLE
  5
2A02
330
0
100
AcDbSymbolTable
 70
     1
100
AcDbDimStyleTable
 71
     1
340
2A03
  0
DIMSTYLE
105
2A03
330
2A02
100
AcDbSymbolTableRecord
100
AcDbDimStyleTableRecord
  2
Standard
 70
     0
 41
0.18
140
0.18
141
0.09
340
29F5
  0
ENDTAB
  0
TABLE
  2
BLOCK_RECORD
  5
29D6
330
0
100
AcDbSymbolTable
 70
     5
  0
BLOCK_RECORD
  5
29D7
330
29D6
100
AcDbSymbolTableRecord
100
AcDbBlockTableRecord
  2
*Model_Space
340
29E8
  0
BLOCK_RECORD
  5
29EA
330
29D6
100
AcDbSymbolTableRecord
100
AcDbBlockTableRecord
  2
*Paper_Space
340
29ED
  0
BLOCK_RECORD
  5
28D1
330
29D6
100
AcDbSymbolTableRecord
100
AcDbBlockTableRecord
  2
OV6
340
0
102
{BLKREFS
331
28D9
331
2920
102
}
  0
BLOCK_RECORD
  5
28DB
330
29D6
100
AcDbSymbolTableRecord
100
AcDbBlockTableRecord
  2
WA
340
0
102
{BLKREFS
331
28E1
331
2919
331
291A
331
291C
331
291D
331
291E
331
291F
102
}
  0
BLOCK_RECORD
  5
2901
330
29D6
100
AcDbSymbolTableRecord
100
AcDbBlockTableRecord
  2
GV4
340
0
102
{BLKREFS
331
290B
331
2929
102
}
  0
BLOCK_RECORD
  5
290D
330
29D6
100
AcDbSymbolTableRecord
100
AcDbBlockTableRecord
  2
OV2
340
0
102
{BLKREFS
331
2918
331
291B
102
}
  0
BLOCK_RECORD
  5
2922
330
29D6
100
AcDbSymbolTableRecord
100
AcDbBlockTableRecord
  2
GV2
340
0
102
{BLKREFS
331
2928
102
}
  0
ENDTAB
  0
ENDSEC
  0
SECTION
  2
BLOCKS
  0
BLOCK
  5
29D8
330
29D7
100
AcDbEntity
  8
0
100
AcDbBlockBegin
  2
*Model_Space
 70
     0
 10
0.0
 20
0.0
 30
0.0
  3
*Model_Space
  1

  0
ENDBLK
  5
29E7
330
29D7
100
AcDbEntity
  8
0
100
AcDbBlockEnd
  0
BLOCK
  5
29EB
330
29EA
100
AcDbEntity
 67
     1
  8
0
100
AcDbBlockBegin
  2
*Paper_Space
 70
     0
 10
0.0
 20
0.0
 30
0.0
  3
*Paper_Space
  1

  0
ENDBLK
  5
29EC
330
29EA
100
AcDbEntity
 67
     1
  8
0
100
AcDbBlockEnd
  0
BLOCK
  5
2A45
330
28D1
100
AcDbEntity
  8
0
100
AcDbBlockBegin
  2
OV6
 70
     2
 10
0.0
 20
0.0
 30
0.0
  3
OV6
  1

  0
LINE
  5
28D2
330
28D1
100
AcDbEntity
  8
0
 62
     0
370
    -2
100
AcDbLine
 10
21.25
 20
0.0
 30
0.0
 11
21.25
 21
2.5
 31
0.0
  0
LINE
  5
28D3
330
28D1
100
AcDbEntity
  8
0
 62
     0
370
    -2
100
AcDbLine
 10
16.25
 20
0.0
 30
0.0
 11
16.25
 21
-2.5
 31
0.0
  0
LINE
  5
28D4
330
28D1
100
AcDbEntity
  8
0
 62
     0
370
    -2
100
AcDbLine
 10
11.25
 20
0.0
 30
0.0
 11
11.25
 21
2.5
 31
0.0
  0
LINE
  5
28D5
330
28D1
100
AcDbEntity
  8
0
 62
     0
370
    -2
100
AcDbLine
 10
6.25
 20
0.0
 30
0.0
 11
6.25
 21
-2.5
 31
0.0
  0
LINE
  5
28D6
330
28D1
100
AcDbEntity
  8
0
 62
     0
370
    -2
100
AcDbLine
 10
1.25
 20
0.0
 30
0.0
 11
1.25
 21
2.5
 31
0.0
  0
LINE
  5
28D7
330
28D1
100
AcDbEntity
  8
0
 62
     0
370
    -2
100
AcDbLine
 10
0.0
 20
0.0
 30
0.0
 11
22.5
 21
0.0
 31
0.0
  0
ATTDEF
  5
28D8
330
28D1
100
AcDbEntity
  8
0
 62
     0
 60
     1
370
    -2
100
AcDbText
 10
1156.0
 20
500.0
 30
0.0
 40
9.0
  1

  7
ISO
100
AcDbAttributeDefinition
  3
Symbool
  2
OV6
 70
     0
  0
ENDBLK
  5
2A46
330
28D1
100
AcDbEntity
  8
0
100
AcDbBlockEnd
  0
BLOCK
  5
2A48
330
28DB
100
AcDbEntity
  8
0
100
AcDbBlockBegin
  2
WA
 70
     2
 10
0.0
 20
0.0
 30
0.0
  3
WA
  1

  0
ARC
  5
28DC
330
28DB
100
AcDbEntity
  8
0
 62
     0
370
    -2
100
AcDbCircle
 10
3.75
 20
0.25
 30
0.0
 40
4.25
100
AcDbArc
 50
28.072487
 51
151.927513
  0
ARC
  5
28DD
330
28DB
100
AcDbEntity
  8
0
 62
     0
370
    -2
100
AcDbCircle
 10
11.25
 20
4.25
 30
0.0
 40
4.25
100
AcDbArc
 50
208.072487
 51
331.927513
  0
ARC
  5
28DE
330
28DB
100
AcDbEntity
  8
0
 62
     0
370
    -2
100
AcDbCircle
 10
3.75
 20
-4.25
 30
0.0
 40
4.25
100
AcDbArc
 50
28.072487
 51
151.927513
  0
ARC
  5
28DF
330
28DB
100
AcDbEntity
  8
0
 62
     0
370
    -2
100
AcDbCircle
 10
11.25
 20
-0.25
 30
0.0
 40
4.25
100
AcDbArc
 50
208.072487
 51
331.927513
  0
ATTDEF
  5
28E0
330
28DB
100
AcDbEntity
  8
0
 62
     0
 60
     1
370
    -2
100
AcDbText
 10
1156.0
 20
400.0
 30
0.0
 40
9.0
  1

  7
ISO
100
AcDbAttributeDefinition
  3
Symbool
  2
WA
 70
     0
  0
ENDBLK
  5
2A49
330
28DB
100
AcDbEntity
  8
0
100
AcDbBlockEnd
  0
BLOCK
  5
2A4A
330
2901
100
AcDbEntity
  8
0
100
AcDbBlockBegin
  2
GV4
 70
     2
 10
0.0
 20
0.0
 30
0.0
  3
GV4
  1

  0
LINE
  5
2902
330
2901
100
AcDbEntity
  8
0
 62
     0
370
    -2
100
AcDbLine
 10
0.0
 20
-1.5
 30
0.0
 11
13.5
 21
-9.25
 31
0.0
  0
LINE
  5
2903
330
2901
100
AcDbEntity
  8
0
 62
     0
370
    -2
100
AcDbLine
 10
0.0
 20
5.25
 30
0.0
 11
25.5
 21
-9.25
 31
0.0
  0
LINE
  5
2904
330
2901
100
AcDbEntity
  8
0
 62
     0
370
    -2
100
AcDbLine
 10
10.0
 20
6.75
 30
0.0
 11
31.0
 21
-5.25
 31
0.0
  0
LINE
  5
2905
330
2901
100
AcDbEntity
  8
0
 62
     0
370
    -2
100
AcDbLine
 10
22.0
 20
6.75
 30
0.0
 11
31.0
 21
1.5
 31
0.0
  0
LINE
  5
2906
330
2901
100
AcDbEntity
  8
0
 62
     0
370
    -2
100
AcDbLine
 10
17.5
 20
-9.25
 30
0.0
 11
31.0
 21
-1.5
 31
0.0
  0
LINE
  5
2907
330
2901
100
AcDbEntity
  8
0
 62
     0
370
    -2
100
AcDbLine
 10
5.5
 20
-9.25
 30
0.0
 11
31.0
 21
5.25
 31
0.0
  0
LINE
  5
2908
330
2901
100
AcDbEntity
  8
0
 62
     0
370
    -2
100
AcDbLine
 10
21.0
 20
6.75
 30
0.0
 11
0.0
 21
-5.25
 31
0.0
  0
LINE
  5
2909
330
2901
100
AcDbEntity
  8
0
 62
     0
370
    -2
100
AcDbLine
 10
0.0
 20
1.5
 30
0.0
 11
9.0
 21
6.75
 31
0.0
  0
ATTDEF
  5
290A
330
2901
100
AcDbEntity
  8
0
 62
     0
 60
     1
370
    -2
100
AcDbText
 10
1156.0
 20
750.0
 30
0.0
 40
9.0
  1

  7
ISO
100
AcDbAttributeDefinition
  3
Symbool
  2
GV4
 70
     0
  0
ENDBLK
  5
2A4B
330
2901
100
AcDbEntity
  8
0
100
AcDbBlockEnd
  0
BLOCK
  5
2A4C
330
290D
100
AcDbEntity
  8
0
100
AcDbBlockBegin
  2
OV2
 70
     2
 10
0.0
 20
0.0
 30
0.0
  3
OV2
  1

  0
LINE
  5
290E
330
290D
100
AcDbEntity
  8
0
 62
     0
370
    -2
100
AcDbLine
 10
1.5
 20
10.0
 30
0.0
 11
7.5
 21
10.0
 31
0.0
  0
LINE
  5
290F
330
290D
100
AcDbEntity
  8
0
 62
     0
370
    -2
100
AcDbLine
 10
0.0
 20
5.0
 30
0.0
 11
1.5
 21
5.0
 31
0.0
  0
LINE
  5
2910
330
290D
100
AcDbEntity
  8
0
 62
     0
370
    -2
100
AcDbLine
 10
9.0
 20
5.0
 30
0.0
 11
7.5
 21
5.0
 31
0.0
  0
LINE
  5
2911
330
290D
100
AcDbEntity
  8
0
 62
     0
370
    -2
100
AcDbLine
 10
9.0
 20
-5.0
 30
0.0
 11
7.5
 21
-5.0
 31
0.0
  0
LINE
  5
2912
330
290D
100
AcDbEntity
  8
0
 62
     0
370
    -2
100
AcDbLine
 10
0.0
 20
-5.0
 30
0.0
 11
1.5
 21
-5.0
 31
0.0
  0
LINE
  5
2913
330
290D
100
AcDbEntity
  8
0
 62
     0
370
    -2
100
AcDbLine
 10
1.5
 20
0.0
 30
0.0
 11
7.5
 21
0.0
 31
0.0
  0
LINE
  5
2914
330
290D
100
AcDbEntity
  8
0
 62
     0
370
    -2
100
AcDbLine
 10
1.5
 20
-10.0
 30
0.0
 11
7.5
 21
-10.0
 31
0.0
  0
LINE
  5
2915
330
290D
100
AcDbEntity
  8
0
 62
     0
370
    -2
100
AcDbLine
 10
1.5
 20
-11.5
 30
0.0
 11
1.5
 21
11.5
 31
0.0
  0
LINE
  5
2916
330
290D
100
AcDbEntity
  8
0
 62
     0
370
    -2
100
AcDbLine
 10
7.5
 20
-11.5
 30
0.0
 11
7.5
 21
11.5
 31
0.0
  0
ATTDEF
  5
2917
330
290D
100
AcDbEntity
  8
0
 62
     0
 60
     1
370
    -2
100
AcDbText
 10
1156.0
 20
600.0
 30
0.0
 40
9.0
  1

  7
ISO
100
AcDbAttributeDefinition
  3
Symbool
  2
OV2
 70
     0
  0
ENDBLK
  5
2A4D
330
290D
100
AcDbEntity
  8
0
100
AcDbBlockEnd
  0
BLOCK
  5
2A4E
330
2922
100
AcDbEntity
  8
0
100
AcDbBlockBegin
  2
GV2
 70
     2
 10
0.0
 20
0.0
 30
0.0
  3
GV2
  1

  0
LINE
  5
2923
330
2922
100
AcDbEntity
  8
0
 62
     0
370
    -2
100
AcDbLine
 10
0.0
 20
0.0
 30
0.0
 11
6.0
 21
10.0
 31
0.0
  0
LINE
  5
2924
330
2922
100
AcDbEntity
  8
0
 62
     0
370
    -2
100
AcDbLine
 10
6.0
 20
-10.0
 30
0.0
 11
0.0
 21
0.0
 31
0.0
  0
LINE
  5
2925
330
2922
100
AcDbEntity
  8
0
 62
     0
370
    -2
100
AcDbLine
 10
1.0
 20
10.0
 30
0.0
 11
7.0
 21
0.0
 31
0.0
  0
LINE
  5
2926
330
2922
100
AcDbEntity
  8
0
 62
     0
370
    -2
100
AcDbLine
 10
1.0
 20
-10.0
 30
0.0
 11
7.0
 21
0.0
 31
0.0
  0
ATTDEF
  5
2927
330
2922
100
AcDbEntity
  8
0
 62
     0
 60
     1
370
    -2
100
AcDbText
 10
1156.0
 20
800.0
 30
0.0
 40
9.0
  1

  7
ISO
100
AcDbAttributeDefinition
  3
Symbool
  2
GV2
 70
     0
  0
ENDBLK
  5
2A4F
330
2922
100
AcDbEntity
  8
0
100
AcDbBlockEnd
  0
ENDSEC
  0
SECTION
  2
ENTITIES
  0
INSERT
  5
28D9
330
29D7
100
AcDbEntity
  8
S02
  6
Continuous
 62
     7
 48
0.1
370
     0
100
AcDbBlockReference
  2
OV6
 10
204908.95
 20
438856.94
 30
0.0
 41
0.1
 42
0.1
 43
0.1
 50
4.562498
1001
TOPOCAD_8_LKI
1002
{
1000
lki:bewerking=0
1000
lki:bron=
1000
lki:groep=6
1000
lki:klasse=S02
1000
lki:mutatiedatum=0.000000
1000
lki:opnamedatum=39478.671273
1000
lki:status=1
1000
lki:versie=8.0
1000
lki:wijzin=0
1000
lki:zichtbaarheid=0
1002
}
1001
TOPOCAD_8_GBKN
1002
{
1000
gbkn:Layer=S02
1002
}
1001
TOPOCAD_8_NGDW
1002
{
1000
ngdw:Dataset=?
1002
}
1001
TOPOCAD_8
1002
{
1000
topo:datum=39478.670023
1000
topo:filenaam=U:\OW\Kadaster-0stand-mrt\2008\jan-2008_kl-0092_vst-ahm\200801\0092\02\0092_02.sfn
1000
topo:ripunt=204919.915000,438857.815000,0.000000
1002
}
  0
INSERT
  5
28E1
330
29D7
100
AcDbEntity
  8
S05
  6
Continuous
 62
     7
 48
0.1
370
     0
100
AcDbBlockReference
  2
WA
 10
204929.604
 20
438664.971
 30
0.0
 41
0.1
 42
0.1
 43
0.1
 50
14.741177
1001
TOPOCAD_8_LKI
1002
{
1000
lki:bewerking=0
1000
lki:bron=
1000
lki:groep=6
1000
lki:klasse=S05
1000
lki:mutatiedatum=0.000000
1000
lki:opnamedatum=39478.671273
1000
lki:status=1
1000
lki:versie=8.0
1000
lki:wijzin=0
1000
lki:zichtbaarheid=0
1002
}
1001
TOPOCAD_8_GBKN
1002
{
1000
gbkn:Layer=S05
1002
}
1001
TOPOCAD_8_NGDW
1002
{
1000
ngdw:Dataset=?
1002
}
1001
TOPOCAD_8
1002
{
1000
topo:datum=39478.670023
1000
topo:filenaam=U:\OW\Kadaster-0stand-mrt\2008\jan-2008_kl-0092_vst-ahm\200801\0092\02\0092_02.sfn
1000
topo:ripunt=204940.242000,438667.770000,0.000000
1002
}
  0
LWPOLYLINE
  5
28E2
330
29D7
100
AcDbEntity
  8
B03_F
  6
Continuous
 62
     7
 48
0.1
370
     0
100
AcDbPolyline
 90
        7
 70
   128
 43
0.0
 10
204904.362
 20
438763.026
 10
204916.231
 20
438765.154
 10
204915.334
 20
438770.59
 10
204912.183
 20
438770.197
 10
204911.382
 20
438775.145
 10
204902.566
 20
438773.715
 10
204904.362
 20
438763.026
1001
TOPOCAD_8_LKI
1002
{
1000
lki:bewerking=1
1000
lki:bron=F6
1000
lki:groep=5
1000
lki:klasse=B03
1000
lki:mutatiedatum=0.000000
1000
lki:opnamedatum=34381.000000
1000
lki:precisie=3
1000
lki:status=1
1000
lki:versie=8.0
1000
lki:wijzin=2
1000
lki:zichtbaarheid=0
1002
}
1001
TOPOCAD_8_GBKN
1002
{
1000
gbkn:Layer=B03_F
1002
}
1001
TOPOCAD_8_NGDW
1002
{
1000
ngdw:Dataset=?
1002
}
1001
TOPOCAD_8
1002
{
1000
topo:datum=39478.670023
1000
topo:filenaam=U:\OW\Kadaster-0stand-mrt\2008\jan-2008_kl-0092_vst-ahm\200801\0092\02\0092_02.sfn
1002
}
  0
LWPOLYLINE
  5
28E3
330
29D7
100
AcDbEntity
  8
B01_T
  6
Continuous
 62
     7
 48
0.1
370
     0
100
AcDbPolyline
 90
        7
 70
   128
 43
0.0
 10
204931.528
 20
438781.638
 10
204932.772
 20
438772.345
 10
204922.68
 20
438770.994
 10
204923.796
 20
438762.656
 10
204918.806
 20
438761.988
 10
204916.446
 20
438779.62
 10
204931.528
 20
438781.638
1001
TOPOCAD_8_LKI
1002
{
1000
lki:bewerking=1
1000
lki:bron=NAVER
1000
lki:groep=5
1000
lki:klasse=B01
1000
lki:mutatiedatum=0.000000
1000
lki:opnamedatum=34820.000000
1000
lki:precisie=1
1000
lki:status=1
1000
lki:versie=8.0
1000
lki:wijzin=1
1000
lki:zichtbaarheid=0
1002
}
1001
TOPOCAD_8_GBKN
1002
{
1000
gbkn:Layer=B01_T
1002
}
1001
TOPOCAD_8_NGDW
1002
{
1000
ngdw:Dataset=?
1002
}
1001
TOPOCAD_8
1002
{
1000
topo:datum=39478.670023
1000
topo:filenaam=U:\OW\Kadaster-0stand-mrt\2008\jan-2008_kl-0092_vst-ahm\200801\0092\02\0092_02.sfn
1002
}
  0
LWPOLYLINE
  5
28E4
330
29D7
100
AcDbEntity
  8
B03_F
  6
Continuous
 62
     7
 48
0.1
370
     0
100
AcDbPolyline
 90
        5
 70
   128
 43
0.0
 10
204905.619
 20
438736.224
 10
204912.952
 20
438737.325
 10
204911.235
 20
438749.816
 10
204903.841
 20
438748.755
 10
204905.619
 20
438736.224
1001
TOPOCAD_8_LKI
1002
{
1000
lki:bewerking=1
1000
lki:bron=F6
1000
lki:groep=5
1000
lki:klasse=B03
1000
lki:mutatiedatum=0.000000
1000
lki:opnamedatum=34381.000000
1000
lki:precisie=3
1000
lki:status=1
1000
lki:versie=8.0
1000
lki:wijzin=2
1000
lki:zichtbaarheid=0
1002
}
1001
TOPOCAD_8_GBKN
1002
{
1000
gbkn:Layer=B03_F
1002
}
1001
TOPOCAD_8_NGDW
1002
{
1000
ngdw:Dataset=?
1002
}
1001
TOPOCAD_8
1002
{
1000
topo:datum=39478.670023
1000
topo:filenaam=U:\OW\Kadaster-0stand-mrt\2008\jan-2008_kl-0092_vst-ahm\200801\0092\02\0092_02.sfn
1002
}
  0
LWPOLYLINE
  5
28EF
330
29D7
100
AcDbEntity
  8
T02_F
  6
RASTER
 62
     7
 48
0.1
370
     0
100
AcDbPolyline
 90
        2
 70
     0
 43
0.0
 10
204993.109
 20
438789.871
 10
205000.0
 20
438791.621
1001
TOPOCAD_8_LKI
1002
{
1000
lki:bewerking=1
1000
lki:bron=F6
1000
lki:groep=5
1000
lki:klasse=T02
1000
lki:mutatiedatum=0.000000
1000
lki:opnamedatum=34381.000000
1000
lki:precisie=3
1000
lki:status=1
1000
lki:versie=8.0
1000
lki:wijzin=2
1000
lki:zichtbaarheid=0
1002
}
1001
TOPOCAD_8_GBKN
1002
{
1000
gbkn:Layer=T02_F
1002
}
1001
TOPOCAD_8_NGDW
1002
{
1000
ngdw:Dataset=?
1002
}
1001
TOPOCAD_8
1002
{
1000
topo:datum=39478.670023
1000
topo:filenaam=U:\OW\Kadaster-0stand-mrt\2008\jan-2008_kl-0092_vst-ahm\200801\0092\02\0092_02.sfn
1002
}
  0
LWPOLYLINE
  5
28F0
330
29D7
100
AcDbEntity
  8
B14_F
  6
Continuous
 62
     7
 48
0.1
370
     0
100
AcDbPolyline
 90
        4
 70
   128
 43
0.0
 10
204976.597842
 20
438895.271205
 10
204976.599
 20
438895.252
 10
204967.725
 20
438894.754
 10
204967.694801
 20
438895.271205
1001
TOPOCAD_8_LKI
1002
{
1000
lki:bewerking=1
1000
lki:bron=F6
1000
lki:groep=5
1000
lki:klasse=B14
1000
lki:mutatiedatum=0.000000
1000
lki:opnamedatum=34381.000000
1000
lki:precisie=3
1000
lki:status=1
1000
lki:versie=8.0
1000
lki:wijzin=2
1000
lki:zichtbaarheid=0
1002
}
1001
TOPOCAD_8_GBKN
1002
{
1000
gbkn:Layer=B14_F
1002
}
1001
TOPOCAD_8_NGDW
1002
{
1000
ngdw:Dataset=?
1002
}
1001
TOPOCAD_8
1002
{
1000
topo:datum=39478.670023
1000
topo:filenaam=U:\OW\Kadaster-0stand-mrt\2008\jan-2008_kl-0092_vst-ahm\200801\0092\02\0092_02.sfn
1002
}
  0
LWPOLYLINE
  5
28F1
330
29D7
100
AcDbEntity
  8
T02_F
  6
RASTER
 62
     7
 48
0.1
370
     0
100
AcDbPolyline
 90
        3
 70
     0
 43
0.0
 10
204991.822
 20
438885.542
 10
204992.803
 20
438865.668
 10
204984.213
 20
438865.045
1001
TOPOCAD_8_LKI
1002
{
1000
lki:bewerking=1
1000
lki:bron=F6
1000
lki:groep=5
1000
lki:klasse=T02
1000
lki:mutatiedatum=0.000000
1000
lki:opnamedatum=34381.000000
1000
lki:precisie=3
1000
lki:status=1
1000
lki:versie=8.0
1000
lki:wijzin=2
1000
lki:zichtbaarheid=0
1002
}
1001
TOPOCAD_8_GBKN
1002
{
1000
gbkn:Layer=T02_F
1002
}
1001
TOPOCAD_8_NGDW
1002
{
1000
ngdw:Dataset=?
1002
}
1001
TOPOCAD_8
1002
{
1000
topo:datum=39478.670023
1000
topo:filenaam=U:\OW\Kadaster-0stand-mrt\2008\jan-2008_kl-0092_vst-ahm\200801\0092\02\0092_02.sfn
1002
}
  0
LWPOLYLINE
  5
28F2
330
29D7
100
AcDbEntity
  8
T02_F
  6
RASTER
 62
     7
 48
0.1
370
     0
100
AcDbPolyline
 90
        2
 70
     0
 43
0.0
 10
204929.332
 20
438860.169
 10
204984.213
 20
438865.045
1001
TOPOCAD_8_LKI
1002
{
1000
lki:bewerking=1
1000
lki:bron=F6
1000
lki:groep=5
1000
lki:klasse=T02
1000
lki:mutatiedatum=0.000000
1000
lki:opnamedatum=34381.000000
1000
lki:precisie=3
1000
lki:status=1
1000
lki:versie=8.0
1000
lki:wijzin=2
1000
lki:zichtbaarheid=0
1002
}
1001
TOPOCAD_8_GBKN
1002
{
1000
gbkn:Layer=T02_F
1002
}
1001
TOPOCAD_8_NGDW
1002
{
1000
ngdw:Dataset=?
1002
}
1001
TOPOCAD_8
1002
{
1000
topo:datum=39478.670023
1000
topo:filenaam=U:\OW\Kadaster-0stand-mrt\2008\jan-2008_kl-0092_vst-ahm\200801\0092\02\0092_02.sfn
1002
}
  0
LWPOLYLINE
  5
28F3
330
29D7
100
AcDbEntity
  8
T09_F
  6
Continuous
 62
     7
 48
0.1
370
     0
100
AcDbPolyline
 90
        6
 70
   128
 43
0.0
 10
204888.777936
 20
438652.911454
 10
204894.213
 20
438654.817
 10
204943.358
 20
438671.231
 10
204965.39
 20
438678.499
 10
204982.2
 20
438684.044
 10
205000.0
 20
438690.037
1001
TOPOCAD_8_LKI
1002
{
1000
lki:bewerking=1
1000
lki:bron=F6
1000
lki:groep=5
1000
lki:klasse=T09
1000
lki:mutatiedatum=0.000000
1000
lki:opnamedatum=34381.000000
1000
lki:precisie=3
1000
lki:status=1
1000
lki:versie=8.0
1000
lki:wijzin=2
1000
lki:zichtbaarheid=0
1002
}
1001
TOPOCAD_8_GBKN
1002
{
1000
gbkn:Layer=T09_F
1002
}
1001
TOPOCAD_8_NGDW
1002
{
1000
ngdw:Dataset=?
1002
}
1001
TOPOCAD_8
1002
{
1000
topo:datum=39478.670023
1000
topo:filenaam=U:\OW\Kadaster-0stand-mrt\2008\jan-2008_kl-0092_vst-ahm\200801\0092\02\0092_02.sfn
1002
}
  0
LWPOLYLINE
  5
28F4
330
29D7
100
AcDbEntity
  8
T09_F
  6
Continuous
 62
     7
 48
0.1
370
     0
100
AcDbPolyline
 90
        3
 70
   128
 43
0.0
 10
205000.0
 20
438687.515
 10
204913.4
 20
438658.127
 10
204888.777936
 20
438649.897249
1001
TOPOCAD_8_LKI
1002
{
1000
lki:bewerking=1
1000
lki:bron=F6
1000
lki:groep=5
1000
lki:klasse=T09
1000
lki:mutatiedatum=0.000000
1000
lki:opnamedatum=34381.000000
1000
lki:precisie=3
1000
lki:status=1
1000
lki:versie=8.0
1000
lki:wijzin=2
1000
lki:zichtbaarheid=0
1002
}
1001
TOPOCAD_8_GBKN
1002
{
1000
gbkn:Layer=T09_F
1002
}
1001
TOPOCAD_8_NGDW
1002
{
1000
ngdw:Dataset=?
1002
}
1001
TOPOCAD_8
1002
{
1000
topo:datum=39478.670023
1000
topo:filenaam=U:\OW\Kadaster-0stand-mrt\2008\jan-2008_kl-0092_vst-ahm\200801\0092\02\0092_02.sfn
1002
}
  0
LWPOLYLINE
  5
28F5
330
29D7
100
AcDbEntity
  8
B03_F
  6
Continuous
 62
     7
 48
0.1
370
     0
100
AcDbPolyline
 90
        5
 70
   128
 43
0.0
 10
204896.052
 20
438771.775
 10
204888.829
 20
438770.268
 10
204889.247
 20
438767.591
 10
204896.549
 20
438768.794
 10
204896.052
 20
438771.775
1001
TOPOCAD_8_LKI
1002
{
1000
lki:bewerking=1
1000
lki:bron=F6
1000
lki:groep=5
1000
lki:klasse=B03
1000
lki:mutatiedatum=0.000000
1000
lki:opnamedatum=34381.000000
1000
lki:precisie=3
1000
lki:status=1
1000
lki:versie=8.0
1000
lki:wijzin=2
1000
lki:zichtbaarheid=0
1002
}
1001
TOPOCAD_8_GBKN
1002
{
1000
gbkn:Layer=B03_F
1002
}
1001
TOPOCAD_8_NGDW
1002
{
1000
ngdw:Dataset=?
1002
}
1001
TOPOCAD_8
1002
{
1000
topo:datum=39478.670023
1000
topo:filenaam=U:\OW\Kadaster-0stand-mrt\2008\jan-2008_kl-0092_vst-ahm\200801\0092\02\0092_02.sfn
1002
}
  0
LWPOLYLINE
  5
28F6
330
29D7
100
AcDbEntity
  8
T02_F
  6
RASTER
 62
     7
 48
0.1
370
     0
100
AcDbPolyline
 90
        2
 70
     0
 43
0.0
 10
204991.360878
 20
438895.271205
 10
204991.822
 20
438885.542
1001
TOPOCAD_8_LKI
1002
{
1000
lki:bewerking=1
1000
lki:bron=F6
1000
lki:groep=5
1000
lki:klasse=T02
1000
lki:mutatiedatum=0.000000
1000
lki:opnamedatum=34381.000000
1000
lki:precisie=3
1000
lki:status=1
1000
lki:versie=8.0
1000
lki:wijzin=2
1000
lki:zichtbaarheid=0
1002
}
1001
TOPOCAD_8_GBKN
1002
{
1000
gbkn:Layer=T02_F
1002
}
1001
TOPOCAD_8_NGDW
1002
{
1000
ngdw:Dataset=?
1002
}
1001
TOPOCAD_8
1002
{
1000
topo:datum=39478.670023
1000
topo:filenaam=U:\OW\Kadaster-0stand-mrt\2008\jan-2008_kl-0092_vst-ahm\200801\0092\02\0092_02.sfn
1002
}
  0
LWPOLYLINE
  5
28F7
330
29D7
100
AcDbEntity
  8
T02_F
  6
RASTER
 62
     7
 48
0.1
370
     0
100
AcDbPolyline
 90
        4
 70
     0
 43
0.0
 10
204956.169
 20
438747.51
 10
204996.774
 20
438758.898
 10
204993.109
 20
438789.871
 10
204984.213
 20
438865.045
1001
TOPOCAD_8_LKI
1002
{
1000
lki:bewerking=1
1000
lki:bron=F6
1000
lki:groep=5
1000
lki:klasse=T02
1000
lki:mutatiedatum=0.000000
1000
lki:opnamedatum=34381.000000
1000
lki:precisie=3
1000
lki:status=1
1000
lki:versie=8.0
1000
lki:wijzin=2
1000
lki:zichtbaarheid=0
1002
}
1001
TOPOCAD_8_GBKN
1002
{
1000
gbkn:Layer=T02_F
1002
}
1001
TOPOCAD_8_NGDW
1002
{
1000
ngdw:Dataset=?
1002
}
1001
TOPOCAD_8
1002
{
1000
topo:datum=39478.670023
1000
topo:filenaam=U:\OW\Kadaster-0stand-mrt\2008\jan-2008_kl-0092_vst-ahm\200801\0092\02\0092_02.sfn
1002
}
  0
LWPOLYLINE
  5
28F8
330
29D7
100
AcDbEntity
  8
T02_F
  6
RASTER
 62
     7
 48
0.1
370
     0
100
AcDbPolyline
 90
        5
 70
     0
 43
0.0
 10
204965.39
 20
438678.499
 10
204962.106
 20
438703.079
 10
204956.169
 20
438747.51
 10
204951.305
 20
438783.916
 10
204942.992
 20
438782.845
1001
TOPOCAD_8_LKI
1002
{
1000
lki:bewerking=1
1000
lki:bron=F6
1000
lki:groep=5
1000
lki:klasse=T02
1000
lki:mutatiedatum=0.000000
1000
lki:opnamedatum=34381.000000
1000
lki:precisie=3
1000
lki:status=1
1000
lki:versie=8.0
1000
lki:wijzin=2
1000
lki:zichtbaarheid=0
1002
}
1001
TOPOCAD_8_GBKN
1002
{
1000
gbkn:Layer=T02_F
1002
}
1001
TOPOCAD_8_NGDW
1002
{
1000
ngdw:Dataset=?
1002
}
1001
TOPOCAD_8
1002
{
1000
topo:datum=39478.670023
1000
topo:filenaam=U:\OW\Kadaster-0stand-mrt\2008\jan-2008_kl-0092_vst-ahm\200801\0092\02\0092_02.sfn
1002
}
  0
LWPOLYLINE
  5
28F9
330
29D7
100
AcDbEntity
  8
T02_F
  6
RASTER
 62
     7
 48
0.1
370
     0
100
AcDbPolyline
 90
        7
 70
     0
 43
0.0
 10
204962.106
 20
438703.079
 10
204928.451
 20
438695.456
 10
204917.763
 20
438734.198
 10
204899.91
 20
438732.656
 10
204894.343
 20
438761.343
 10
204889.736
 20
438762.26
 10
204888.777936
 20
438769.824776
1001
TOPOCAD_8_LKI
1002
{
1000
lki:bewerking=1
1000
lki:bron=F6
1000
lki:groep=5
1000
lki:klasse=T02
1000
lki:mutatiedatum=0.000000
1000
lki:opnamedatum=34381.000000
1000
lki:precisie=3
1000
lki:status=1
1000
lki:versie=8.0
1000
lki:wijzin=2
1000
lki:zichtbaarheid=0
1002
}
1001
TOPOCAD_8_GBKN
1002
{
1000
gbkn:Layer=T02_F
1002
}
1001
TOPOCAD_8_NGDW
1002
{
1000
ngdw:Dataset=?
1002
}
1001
TOPOCAD_8
1002
{
1000
topo:datum=39478.670023
1000
topo:filenaam=U:\OW\Kadaster-0stand-mrt\2008\jan-2008_kl-0092_vst-ahm\200801\0092\02\0092_02.sfn
1002
}
  0
LWPOLYLINE
  5
28FA
330
29D7
100
AcDbEntity
  8
T02_F
  6
RASTER
 62
     7
 48
0.1
370
     0
100
AcDbPolyline
 90
        3
 70
     0
 43
0.0
 10
204888.777936
 20
438775.335291
 10
204894.499
 20
438776.872
 10
204888.777936
 20
438802.572508
1001
TOPOCAD_8_LKI
1002
{
1000
lki:bewerking=1
1000
lki:bron=F6
1000
lki:groep=5
1000
lki:klasse=T02
1000
lki:mutatiedatum=0.000000
1000
lki:opnamedatum=34381.000000
1000
lki:precisie=3
1000
lki:status=1
1000
lki:versie=8.0
1000
lki:wijzin=2
1000
lki:zichtbaarheid=0
1002
}
1001
TOPOCAD_8_GBKN
1002
{
1000
gbkn:Layer=T02_F
1002
}
1001
TOPOCAD_8_NGDW
1002
{
1000
ngdw:Dataset=?
1002
}
1001
TOPOCAD_8
1002
{
1000
topo:datum=39478.670023
1000
topo:filenaam=U:\OW\Kadaster-0stand-mrt\2008\jan-2008_kl-0092_vst-ahm\200801\0092\02\0092_02.sfn
1002
}
  0
LWPOLYLINE
  5
28FB
330
29D7
100
AcDbEntity
  8
T03_F
  6
Continuous
 62
     7
 48
0.1
370
     0
100
AcDbPolyline
 90
        7
 70
   128
 43
0.0
 10
204937.137544
 20
438895.271205
 10
204937.369
 20
438893.175
 10
204947.023
 20
438892.693
 10
204948.245
 20
438879.256
 10
204965.96
 20
438880.941
 10
204969.314
 20
438884.289
 10
204991.822
 20
438885.542
1001
TOPOCAD_8_LKI
1002
{
1000
lki:bewerking=1
1000
lki:bron=F6
1000
lki:groep=5
1000
lki:klasse=T03
1000
lki:mutatiedatum=0.000000
1000
lki:opnamedatum=34381.000000
1000
lki:precisie=3
1000
lki:status=1
1000
lki:versie=8.0
1000
lki:wijzin=2
1000
lki:zichtbaarheid=0
1002
}
1001
TOPOCAD_8_GBKN
1002
{
1000
gbkn:Layer=T03_F
1002
}
1001
TOPOCAD_8_NGDW
1002
{
1000
ngdw:Dataset=?
1002
}
1001
TOPOCAD_8
1002
{
1000
topo:datum=39478.670023
1000
topo:filenaam=U:\OW\Kadaster-0stand-mrt\2008\jan-2008_kl-0092_vst-ahm\200801\0092\02\0092_02.sfn
1002
}
  0
LWPOLYLINE
  5
28FC
330
29D7
100
AcDbEntity
  8
V00_F
  6
Continuous
 62
     7
 48
0.1
370
     0
100
AcDbPolyline
 90
       16
 70
   128
 43
0.0
 10
204944.872
 20
438797.911
 10
204940.519
 20
438846.328
 10
204940.194
 20
438850.32
 10
204939.511
 20
438852.797
 10
204938.656
 20
438854.446
 10
204937.918
 20
438855.547
 10
204936.957
 20
438856.629
 10
204936.014
 20
438857.429
 10
204935.088
 20
438858.005
 10
204933.96
 20
438858.583
 10
204932.73
 20
438859.102
 10
204931.236
 20
438859.481
 10
204929.395
 20
438859.641
 10
204926.58
 20
438859.588
 10
204922.891
 20
438859.281
 10
204888.777936
 20
438856.028807
1001
TOPOCAD_8_LKI
1002
{
1000
lki:bewerking=1
1000
lki:bron=F6
1000
lki:groep=5
1000
lki:klasse=V00
1000
lki:mutatiedatum=0.000000
1000
lki:opnamedatum=34381.000000
1000
lki:precisie=3
1000
lki:status=1
1000
lki:versie=8.0
1000
lki:wijzin=2
1000
lki:zichtbaarheid=0
1002
}
1001
TOPOCAD_8_GBKN
1002
{
1000
gbkn:Layer=V00_F
1002
}
1001
TOPOCAD_8_NGDW
1002
{
1000
ngdw:Dataset=?
1002
}
1001
TOPOCAD_8
1002
{
1000
topo:datum=39478.670023
1000
topo:filenaam=U:\OW\Kadaster-0stand-mrt\2008\jan-2008_kl-0092_vst-ahm\200801\0092\02\0092_02.sfn
1002
}
  0
LWPOLYLINE
  5
28FD
330
29D7
100
AcDbEntity
  8
V00_F
  6
Continuous
 62
     7
 48
0.1
370
     0
100
AcDbPolyline
 90
       20
 70
   128
 43
0.0
 10
204888.777936
 20
438853.217333
 10
204925.597
 20
438856.764
 10
204928.21
 20
438856.717
 10
204929.262
 20
438856.686
 10
204930.597
 20
438856.511
 10
204931.304
 20
438856.382
 10
204932.111
 20
438856.111
 10
204932.837
 20
438855.739
 10
204933.441
 20
438855.43
 10
204933.944
 20
438855.121
 10
204934.406
 20
438854.792
 10
204934.808
 20
438854.444
 10
204935.389
 20
438853.871
 10
204935.869
 20
438853.218
 10
204936.227
 20
438852.567
 10
204936.739
 20
438851.124
 10
204937.01
 20
438849.886
 10
204937.078
 20
438848.59
 10
204940.034
 20
438816.345
 10
204941.939
 20
438798.203
1001
TOPOCAD_8_LKI
1002
{
1000
lki:bewerking=1
1000
lki:bron=F6
1000
lki:groep=5
1000
lki:klasse=V00
1000
lki:mutatiedatum=0.000000
1000
lki:opnamedatum=34381.000000
1000
lki:precisie=3
1000
lki:status=1
1000
lki:versie=8.0
1000
lki:wijzin=2
1000
lki:zichtbaarheid=0
1002
}
1001
TOPOCAD_8_GBKN
1002
{
1000
gbkn:Layer=V00_F
1002
}
1001
TOPOCAD_8_NGDW
1002
{
1000
ngdw:Dataset=?
1002
}
1001
TOPOCAD_8
1002
{
1000
topo:datum=39478.670023
1000
topo:filenaam=U:\OW\Kadaster-0stand-mrt\2008\jan-2008_kl-0092_vst-ahm\200801\0092\02\0092_02.sfn
1002
}
  0
LWPOLYLINE
  5
28FE
330
29D7
100
AcDbEntity
  8
B14_F
  6
Continuous
 62
     7
 48
0.1
370
     0
100
AcDbPolyline
 90
        4
 70
   128
 43
0.0
 10
205000.0
 20
438738.19
 10
204999.949
 20
438738.174
 10
204995.615
 20
438752.209
 10
205000.0
 20
438753.639
1001
TOPOCAD_8_LKI
1002
{
1000
lki:bewerking=1
1000
lki:bron=F6
1000
lki:groep=5
1000
lki:klasse=B14
1000
lki:mutatiedatum=0.000000
1000
lki:opnamedatum=34381.000000
1000
lki:precisie=3
1000
lki:status=1
1000
lki:versie=8.0
1000
lki:wijzin=2
1000
lki:zichtbaarheid=0
1002
}
1001
TOPOCAD_8_GBKN
1002
{
1000
gbkn:Layer=B14_F
1002
}
1001
TOPOCAD_8_NGDW
1002
{
1000
ngdw:Dataset=?
1002
}
1001
TOPOCAD_8
1002
{
1000
topo:datum=39478.670023
1000
topo:filenaam=U:\OW\Kadaster-0stand-mrt\2008\jan-2008_kl-0092_vst-ahm\200801\0092\02\0092_02.sfn
1002
}
  0
LWPOLYLINE
  5
28FF
330
29D7
100
AcDbEntity
  8
B14_F
  6
Continuous
 62
     7
 48
0.1
370
     0
100
AcDbPolyline
 90
        4
 70
   128
 43
0.0
 10
204959.879233
 20
438895.271205
 10
204959.944
 20
438894.205
 10
204949.675
 20
438893.822
 10
204949.596746
 20
438895.271205
1001
TOPOCAD_8_LKI
1002
{
1000
lki:bewerking=1
1000
lki:bron=F6
1000
lki:groep=5
1000
lki:klasse=B14
1000
lki:mutatiedatum=0.000000
1000
lki:opnamedatum=34381.000000
1000
lki:precisie=3
1000
lki:status=1
1000
lki:versie=8.0
1000
lki:wijzin=2
1000
lki:zichtbaarheid=0
1002
}
1001
TOPOCAD_8_GBKN
1002
{
1000
gbkn:Layer=B14_F
1002
}
1001
TOPOCAD_8_NGDW
1002
{
1000
ngdw:Dataset=?
1002
}
1001
TOPOCAD_8
1002
{
1000
topo:datum=39478.670023
1000
topo:filenaam=U:\OW\Kadaster-0stand-mrt\2008\jan-2008_kl-0092_vst-ahm\200801\0092\02\0092_02.sfn
1002
}
  0
INSERT
  5
290B
330
29D7
100
AcDbEntity
  8
S01
  6
Continuous
 62
     7
 48
0.1
370
     0
100
AcDbBlockReference
  2
GV4
 10
205083.563
 20
438799.683
 30
0.0
 41
0.1
 42
0.1
 43
0.1
 50
271.963985
1001
TOPOCAD_8_LKI
1002
{
1000
lki:bewerking=0
1000
lki:bron=
1000
lki:groep=6
1000
lki:klasse=S01
1000
lki:mutatiedatum=0.000000
1000
lki:opnamedatum=39478.671331
1000
lki:status=1
1000
lki:versie=8.0
1000
lki:wijzin=0
1000
lki:zichtbaarheid=0
1002
}
1001
TOPOCAD_8_GBKN
1002
{
1000
gbkn:Layer=S01
1002
}
1001
TOPOCAD_8_NGDW
1002
{
1000
ngdw:Dataset=?
1002
}
1001
TOPOCAD_8
1002
{
1000
topo:datum=39478.670023
1000
topo:filenaam=U:\OW\Kadaster-0stand-mrt\2008\jan-2008_kl-0092_vst-ahm\200801\0092\02\0092_02.sfn
1000
topo:ripunt=205083.940000,438788.689000,0.000000
1002
}
  0
INSERT
  5
2918
330
29D7
100
AcDbEntity
  8
S02
  6
Continuous
 62
     7
 48
0.1
370
     0
100
AcDbBlockReference
  2
OV2
 10
205116.614
 20
438640.924
 30
0.0
 41
0.1
 42
0.1
 43
0.1
 50
99.296206
1001
TOPOCAD_8_LKI
1002
{
1000
lki:bewerking=0
1000
lki:bron=
1000
lki:groep=6
1000
lki:klasse=S02
1000
lki:mutatiedatum=0.000000
1000
lki:opnamedatum=39478.671331
1000
lki:status=1
1000
lki:versie=8.0
1000
lki:wijzin=0
1000
lki:zichtbaarheid=0
1002
}
1001
TOPOCAD_8_GBKN
1002
{
1000
gbkn:Layer=S02
1002
}
1001
TOPOCAD_8_NGDW
1002
{
1000
ngdw:Dataset=?
1002
}
1001
TOPOCAD_8
1002
{
1000
topo:datum=39478.670023
1000
topo:filenaam=U:\OW\Kadaster-0stand-mrt\2008\jan-2008_kl-0092_vst-ahm\200801\0092\02\0092_02.sfn
1000
topo:ripunt=205114.837000,438651.780000,0.000000
1002
}
  0
INSERT
  5
2919
330
29D7
100
AcDbEntity
  8
S05
  6
Continuous
 62
     7
 48
0.1
370
     0
100
AcDbBlockReference
  2
WA
 10
205126.843
 20
438654.752
 30
0.0
 41
0.1
 42
0.1
 43
0.1
 50
285.783695
1001
TOPOCAD_8_LKI
1002
{
1000
lki:bewerking=0
1000
lki:bron=
1000
lki:groep=6
1000
lki:klasse=S05
1000
lki:mutatiedatum=0.000000
1000
lki:opnamedatum=39478.671331
1000
lki:status=1
1000
lki:versie=8.0
1000
lki:wijzin=0
1000
lki:zichtbaarheid=0
1002
}
1001
TOPOCAD_8_GBKN
1002
{
1000
gbkn:Layer=S05
1002
}
1001
TOPOCAD_8_NGDW
1002
{
1000
ngdw:Dataset=?
1002
}
1001
TOPOCAD_8
1002
{
1000
topo:datum=39478.670023
1000
topo:filenaam=U:\OW\Kadaster-0stand-mrt\2008\jan-2008_kl-0092_vst-ahm\200801\0092\02\0092_02.sfn
1000
topo:ripunt=205129.835000,438644.167000,0.000000
1002
}
  0
INSERT
  5
291A
330
29D7
100
AcDbEntity
  8
S05
  6
Continuous
 62
     7
 48
0.1
370
     0
100
AcDbBlockReference
  2
WA
 10
205135.29
 20
438620.256
 30
0.0
 41
0.1
 42
0.1
 43
0.1
 50
285.783695
1001
TOPOCAD_8_LKI
1002
{
1000
lki:bewerking=0
1000
lki:bron=
1000
lki:groep=6
1000
lki:klasse=S05
1000
lki:mutatiedatum=0.000000
1000
lki:opnamedatum=39478.671331
1000
lki:status=1
1000
lki:versie=8.0
1000
lki:wijzin=0
1000
lki:zichtbaarheid=0
1002
}
1001
TOPOCAD_8_GBKN
1002
{
1000
gbkn:Layer=S05
1002
}
1001
TOPOCAD_8_NGDW
1002
{
1000
ngdw:Dataset=?
1002
}
1001
TOPOCAD_8
1002
{
1000
topo:datum=39478.670023
1000
topo:filenaam=U:\OW\Kadaster-0stand-mrt\2008\jan-2008_kl-0092_vst-ahm\200801\0092\02\0092_02.sfn
1000
topo:ripunt=205138.282000,438609.671000,0.000000
1002
}
  0
INSERT
  5
291B
330
29D7
100
AcDbEntity
  8
S02
  6
Continuous
 62
     7
 48
0.1
370
     0
100
AcDbBlockReference
  2
OV2
 10
205074.214
 20
438793.396
 30
0.0
 41
0.1
 42
0.1
 43
0.1
 50
106.797525
1001
TOPOCAD_8_LKI
1002
{
1000
lki:bewerking=0
1000
lki:bron=
1000
lki:groep=6
1000
lki:klasse=S02
1000
lki:mutatiedatum=0.000000
1000
lki:opnamedatum=39478.671331
1000
lki:status=1
1000
lki:versie=8.0
1000
lki:wijzin=0
1000
lki:zichtbaarheid=0
1002
}
1001
TOPOCAD_8_GBKN
1002
{
1000
gbkn:Layer=S02
1002
}
1001
TOPOCAD_8_NGDW
1002
{
1000
ngdw:Dataset=?
1002
}
1001
TOPOCAD_8
1002
{
1000
topo:datum=39478.670023
1000
topo:filenaam=U:\OW\Kadaster-0stand-mrt\2008\jan-2008_kl-0092_vst-ahm\200801\0092\02\0092_02.sfn
1000
topo:ripunt=205071.035000,438803.927000,0.000000
1002
}
  0
INSERT
  5
291C
330
29D7
100
AcDbEntity
  8
S05
  6
Continuous
 62
     7
 48
0.1
370
     0
100
AcDbBlockReference
  2
WA
 10
205102.235
 20
438759.27
 30
0.0
 41
0.1
 42
0.1
 43
0.1
 50
285.783695
1001
TOPOCAD_8_LKI
1002
{
1000
lki:bewerking=0
1000
lki:bron=
1000
lki:groep=6
1000
lki:klasse=S05
1000
lki:mutatiedatum=0.000000
1000
lki:opnamedatum=39478.671331
1000
lki:status=1
1000
lki:versie=8.0
1000
lki:wijzin=0
1000
lki:zichtbaarheid=0
1002
}
1001
TOPOCAD_8_GBKN
1002
{
1000
gbkn:Layer=S05
1002
}
1001
TOPOCAD_8_NGDW
1002
{
1000
ngdw:Dataset=?
1002
}
1001
TOPOCAD_8
1002
{
1000
topo:datum=39478.670023
1000
topo:filenaam=U:\OW\Kadaster-0stand-mrt\2008\jan-2008_kl-0092_vst-ahm\200801\0092\02\0092_02.sfn
1000
topo:ripunt=205105.227000,438748.685000,0.000000
1002
}
  0
INSERT
  5
291D
330
29D7
100
AcDbEntity
  8
S05
  6
Continuous
 62
     7
 48
0.1
370
     0
100
AcDbBlockReference
  2
WA
 10
205146.124
 20
438769.438
 30
0.0
 41
0.1
 42
0.1
 43
0.1
 50
6.955101
1001
TOPOCAD_8_LKI
1002
{
1000
lki:bewerking=0
1000
lki:bron=
1000
lki:groep=6
1000
lki:klasse=S05
1000
lki:mutatiedatum=0.000000
1000
lki:opnamedatum=39478.671331
1000
lki:status=1
1000
lki:versie=8.0
1000
lki:wijzin=0
1000
lki:zichtbaarheid=0
1002
}
1001
TOPOCAD_8_GBKN
1002
{
1000
gbkn:Layer=S05
1002
}
1001
TOPOCAD_8_NGDW
1002
{
1000
ngdw:Dataset=?
1002
}
1001
TOPOCAD_8
1002
{
1000
topo:datum=39478.670023
1000
topo:filenaam=U:\OW\Kadaster-0stand-mrt\2008\jan-2008_kl-0092_vst-ahm\200801\0092\02\0092_02.sfn
1000
topo:ripunt=205157.043000,438770.770000,0.000000
1002
}
  0
INSERT
  5
291E
330
29D7
100
AcDbEntity
  8
S05
  6
Continuous
 62
     7
 48
0.1
370
     0
100
AcDbBlockReference
  2
WA
 10
205098.375
 20
438715.438
 30
0.0
 41
0.1
 42
0.1
 43
0.1
 50
285.783695
1001
TOPOCAD_8_LKI
1002
{
1000
lki:bewerking=0
1000
lki:bron=
1000
lki:groep=6
1000
lki:klasse=S05
1000
lki:mutatiedatum=0.000000
1000
lki:opnamedatum=39478.671331
1000
lki:status=1
1000
lki:versie=8.0
1000
lki:wijzin=0
1000
lki:zichtbaarheid=0
1002
}
1001
TOPOCAD_8_GBKN
1002
{
1000
gbkn:Layer=S05
1002
}
1001
TOPOCAD_8_NGDW
1002
{
1000
ngdw:Dataset=?
1002
}
1001
TOPOCAD_8
1002
{
1000
topo:datum=39478.670023
1000
topo:filenaam=U:\OW\Kadaster-0stand-mrt\2008\jan-2008_kl-0092_vst-ahm\200801\0092\02\0092_02.sfn
1000
topo:ripunt=205101.367000,438704.853000,0.000000
1002
}
  0
INSERT
  5
291F
330
29D7
100
AcDbEntity
  8
S05
  6
Continuous
 62
     7
 48
0.1
370
     0
100
AcDbBlockReference
  2
WA
 10
205015.557
 20
438694.396
 30
0.0
 41
0.1
 42
0.1
 43
0.1
 50
6.955101
1001
TOPOCAD_8_LKI
1002
{
1000
lki:bewerking=0
1000
lki:bron=
1000
lki:groep=6
1000
lki:klasse=S05
1000
lki:mutatiedatum=0.000000
1000
lki:opnamedatum=39478.671331
1000
lki:status=1
1000
lki:versie=8.0
1000
lki:wijzin=0
1000
lki:zichtbaarheid=0
1002
}
1001
TOPOCAD_8_GBKN
1002
{
1000
gbkn:Layer=S05
1002
}
1001
TOPOCAD_8_NGDW
1002
{
1000
ngdw:Dataset=?
1002
}
1001
TOPOCAD_8
1002
{
1000
topo:datum=39478.670023
1000
topo:filenaam=U:\OW\Kadaster-0stand-mrt\2008\jan-2008_kl-0092_vst-ahm\200801\0092\02\0092_02.sfn
1000
topo:ripunt=205026.476000,438695.728000,0.000000
1002
}
  0
INSERT
  5
2920
330
29D7
100
AcDbEntity
  8
S02
  6
Continuous
 62
     7
 48
0.1
370
     0
100
AcDbBlockReference
  2
OV6
 10
205115.475
 20
438690.495
 30
0.0
 41
0.1
 42
0.1
 43
0.1
 50
352.484111
1001
TOPOCAD_8_LKI
1002
{
1000
lki:bewerking=0
1000
lki:bron=
1000
lki:groep=6
1000
lki:klasse=S02
1000
lki:mutatiedatum=0.000000
1000
lki:opnamedatum=39478.671331
1000
lki:status=1
1000
lki:versie=8.0
1000
lki:wijzin=0
1000
lki:zichtbaarheid=0
1002
}
1001
TOPOCAD_8_GBKN
1002
{
1000
gbkn:Layer=S02
1002
}
1001
TOPOCAD_8_NGDW
1002
{
1000
ngdw:Dataset=?
1002
}
1001
TOPOCAD_8
1002
{
1000
topo:datum=39478.670023
1000
topo:filenaam=U:\OW\Kadaster-0stand-mrt\2008\jan-2008_kl-0092_vst-ahm\200801\0092\02\0092_02.sfn
1000
topo:ripunt=205120.432000,438689.841000,0.000000
1002
}
  0
INSERT
  5
2928
330
29D7
100
AcDbEntity
  8
S01
  6
Continuous
 62
     7
 48
0.1
370
     0
100
AcDbBlockReference
  2
GV2
 10
205084.664
 20
438771.804
 30
0.0
 41
0.1
 42
0.1
 43
0.1
 50
115.201734
1001
TOPOCAD_8_LKI
1002
{
1000
lki:bewerking=0
1000
lki:bron=
1000
lki:groep=6
1000
lki:klasse=S01
1000
lki:mutatiedatum=0.000000
1000
lki:opnamedatum=39478.671331
1000
lki:status=1
1000
lki:versie=8.0
1000
lki:wijzin=0
1000
lki:zichtbaarheid=0
1002
}
1001
TOPOCAD_8_GBKN
1002
{
1000
gbkn:Layer=S01
1002
}
1001
TOPOCAD_8_NGDW
1002
{
1000
ngdw:Dataset=?
1002
}
1001
TOPOCAD_8
1002
{
1000
topo:datum=39478.670023
1000
topo:filenaam=U:\OW\Kadaster-0stand-mrt\2008\jan-2008_kl-0092_vst-ahm\200801\0092\02\0092_02.sfn
1000
topo:ripunt=205082.535000,438776.328000,0.000000
1002
}
  0
INSERT
  5
2929
330
29D7
100
AcDbEntity
  8
S01
  6
Continuous
 62
     7
 48
0.1
370
     0
100
AcDbBlockReference
  2
GV4
 10
205083.678
 20
438819.877
 30
0.0
 41
0.1
 42
0.1
 43
0.1
 50
271.949254
1001
TOPOCAD_8_LKI
1002
{
1000
lki:bewerking=0
1000
lki:bron=
1000
lki:groep=6
1000
lki:klasse=S01
1000
lki:mutatiedatum=0.000000
1000
lki:opnamedatum=39478.671331
1000
lki:status=1
1000
lki:versie=8.0
1000
lki:wijzin=0
1000
lki:zichtbaarheid=0
1002
}
1001
TOPOCAD_8_GBKN
1002
{
1000
gbkn:Layer=S01
1002
}
1001
TOPOCAD_8_NGDW
1002
{
1000
ngdw:Dataset=?
1002
}
1001
TOPOCAD_8
1002
{
1000
topo:datum=39478.670023
1000
topo:filenaam=U:\OW\Kadaster-0stand-mrt\2008\jan-2008_kl-0092_vst-ahm\200801\0092\02\0092_02.sfn
1000
topo:ripunt=205083.712000,438818.878000,0.000000
1002
}
  0
LWPOLYLINE
  5
292A
330
29D7
100
AcDbEntity
  8
B03_F
  6
Continuous
 62
     7
 48
0.1
370
     0
100
AcDbPolyline
 90
        5
 70
   128
 43
0.0
 10
205126.534
 20
438858.435
 10
205130.628
 20
438858.646
 10
205131.113
 20
438853.275
 10
205127.017
 20
438852.939
 10
205127.055
 20
438852.667
1001
TOPOCAD_8_LKI
1002
{
1000
lki:bewerking=1
1000
lki:bron=F6
1000
lki:groep=5
1000
lki:klasse=B03
1000
lki:mutatiedatum=0.000000
1000
lki:opnamedatum=34381.000000
1000
lki:precisie=3
1000
lki:status=1
1000
lki:versie=8.0
1000
lki:wijzin=2
1000
lki:zichtbaarheid=0
1002
}
1001
TOPOCAD_8_GBKN
1002
{
1000
gbkn:Layer=B03_F
1002
}
1001
TOPOCAD_8_NGDW
1002
{
1000
ngdw:Dataset=?
1002
}
1001
TOPOCAD_8
1002
{
1000
topo:datum=39478.670023
1000
topo:filenaam=U:\OW\Kadaster-0stand-mrt\2008\jan-2008_kl-0092_vst-ahm\200801\0092\02\0092_02.sfn
1002
}
  0
LWPOLYLINE
  5
292B
330
29D7
100
AcDbEntity
  8
B03_F
  6
Continuous
 62
     7
 48
0.1
370
     0
100
AcDbPolyline
 90
        5
 70
   128
 43
0.0
 10
205127.055
 20
438852.667
 10
205114.616
 20
438851.263
 10
205113.883
 20
438858.182
 10
205126.091
 20
438859.527
 10
205127.055
 20
438852.667
1001
TOPOCAD_8_LKI
1002
{
1000
lki:bewerking=1
1000
lki:bron=F6
1000
lki:groep=5
1000
lki:klasse=B03
1000
lki:mutatiedatum=0.000000
1000
lki:opnamedatum=34381.000000
1000
lki:precisie=3
1000
lki:status=1
1000
lki:versie=8.0
1000
lki:wijzin=2
1000
lki:zichtbaarheid=0
1002
}
1001
TOPOCAD_8_GBKN
1002
{
1000
gbkn:Layer=B03_F
1002
}
1001
TOPOCAD_8_NGDW
1002
{
1000
ngdw:Dataset=?
1002
}
1001
TOPOCAD_8
1002
{
1000
topo:datum=39478.670023
1000
topo:filenaam=U:\OW\Kadaster-0stand-mrt\2008\jan-2008_kl-0092_vst-ahm\200801\0092\02\0092_02.sfn
1002
}
  0
LWPOLYLINE
  5
292C
330
29D7
100
AcDbEntity
  8
B03_F
  6
Continuous
 62
     7
 48
0.1
370
     0
100
AcDbPolyline
 90
        7
 70
   128
 43
0.0
 10
205107.629
 20
438867.227
 10
205125.134
 20
438868.286
 10
205125.734
 20
438860.763
 10
205117.483
 20
438860.321
 10
205117.269
 20
438862.829
 10
205108.076
 20
438862.191
 10
205107.629
 20
438867.227
1001
TOPOCAD_8_LKI
1002
{
1000
lki:bewerking=1
1000
lki:bron=F6
1000
lki:groep=5
1000
lki:klasse=B03
1000
lki:mutatiedatum=0.000000
1000
lki:opnamedatum=34381.000000
1000
lki:precisie=3
1000
lki:status=1
1000
lki:versie=8.0
1000
lki:wijzin=2
1000
lki:zichtbaarheid=0
1002
}
1001
TOPOCAD_8_GBKN
1002
{
1000
gbkn:Layer=B03_F
1002
}
1001
TOPOCAD_8_NGDW
1002
{
1000
ngdw:Dataset=?
1002
}
1001
TOPOCAD_8
1002
{
1000
topo:datum=39478.670023
1000
topo:filenaam=U:\OW\Kadaster-0stand-mrt\2008\jan-2008_kl-0092_vst-ahm\200801\0092\02\0092_02.sfn
1002
}
  0
LWPOLYLINE
  5
292D
330
29D7
100
AcDbEntity
  8
T02_F
  6
RASTER
 62
     7
 48
0.1
370
     0
100
AcDbPolyline
 90
        2
 70
     0
 43
0.0
 10
205045.431
 20
438703.516
 10
205096.496
 20
438720.297
1001
TOPOCAD_8_LKI
1002
{
1000
lki:bewerking=1
1000
lki:bron=F6
1000
lki:groep=5
1000
lki:klasse=T02
1000
lki:mutatiedatum=0.000000
1000
lki:opnamedatum=34381.000000
1000
lki:precisie=3
1000
lki:status=1
1000
lki:versie=8.0
1000
lki:wijzin=2
1000
lki:zichtbaarheid=0
1002
}
1001
TOPOCAD_8_GBKN
1002
{
1000
gbkn:Layer=T02_F
1002
}
1001
TOPOCAD_8_NGDW
1002
{
1000
ngdw:Dataset=?
1002
}
1001
TOPOCAD_8
1002
{
1000
topo:datum=39478.670023
1000
topo:filenaam=U:\OW\Kadaster-0stand-mrt\2008\jan-2008_kl-0092_vst-ahm\200801\0092\02\0092_02.sfn
1002
}
  0
LWPOLYLINE
  5
292E
330
29D7
100
AcDbEntity
  8
T03_F
  6
Continuous
 62
     7
 48
0.1
370
     0
100
AcDbPolyline
 90
        3
 70
   128
 43
0.0
 10
205073.947
 20
438799.694
 10
205072.214
 20
438798.578
 10
205047.529
 20
438790.503
1001
TOPOCAD_8_LKI
1002
{
1000
lki:bewerking=1
1000
lki:bron=F6
1000
lki:groep=5
1000
lki:klasse=T03
1000
lki:mutatiedatum=0.000000
1000
lki:opnamedatum=34381.000000
1000
lki:precisie=3
1000
lki:status=1
1000
lki:versie=8.0
1000
lki:wijzin=2
1000
lki:zichtbaarheid=0
1002
}
1001
TOPOCAD_8_GBKN
1002
{
1000
gbkn:Layer=T03_F
1002
}
1001
TOPOCAD_8_NGDW
1002
{
1000
ngdw:Dataset=?
1002
}
1001
TOPOCAD_8
1002
{
1000
topo:datum=39478.670023
1000
topo:filenaam=U:\OW\Kadaster-0stand-mrt\2008\jan-2008_kl-0092_vst-ahm\200801\0092\02\0092_02.sfn
1002
}
  0
LWPOLYLINE
  5
292F
330
29D7
100
AcDbEntity
  8
T09_T
  6
Continuous
 62
     7
 48
0.1
370
     0
100
AcDbPolyline
 90
        2
 70
   128
 43
0.0
 10
205096.496
 20
438720.297
 10
205099.231
 20
438720.922
1001
TOPOCAD_8_LKI
1002
{
1000
lki:bewerking=1
1000
lki:bron=BYH97
1000
lki:groep=5
1000
lki:klasse=T09
1000
lki:mutatiedatum=0.000000
1000
lki:opnamedatum=35612.000000
1000
lki:precisie=3
1000
lki:status=1
1000
lki:versie=8.0
1000
lki:wijzin=1
1000
lki:zichtbaarheid=0
1002
}
1001
TOPOCAD_8_GBKN
1002
{
1000
gbkn:Layer=T09_T
1002
}
1001
TOPOCAD_8_NGDW
1002
{
1000
ngdw:Dataset=?
1002
}
1001
TOPOCAD_8
1002
{
1000
topo:datum=39478.670023
1000
topo:filenaam=U:\OW\Kadaster-0stand-mrt\2008\jan-2008_kl-0092_vst-ahm\200801\0092\02\0092_02.sfn
1002
}
  0
LWPOLYLINE
  5
2930
330
29D7
100
AcDbEntity
  8
T02_F
  6
RASTER
 62
     7
 48
0.1
370
     0
100
AcDbPolyline
 90
        6
 70
     0
 43
0.0
 10
205126.686
 20
438663.62
 10
205126.26
 20
438668.698
 10
205164.261
 20
438674.069
 10
205163.766
 20
438678.73
 10
205164.749
 20
438678.841
 10
205164.854
 20
438678.944
1001
TOPOCAD_8_LKI
1002
{
1000
lki:bewerking=1
1000
lki:bron=F6
1000
lki:groep=5
1000
lki:klasse=T02
1000
lki:mutatiedatum=0.000000
1000
lki:opnamedatum=34381.000000
1000
lki:precisie=3
1000
lki:status=1
1000
lki:versie=8.0
1000
lki:wijzin=2
1000
lki:zichtbaarheid=0
1002
}
1001
TOPOCAD_8_GBKN
1002
{
1000
gbkn:Layer=T02_F
1002
}
1001
TOPOCAD_8_NGDW
1002
{
1000
ngdw:Dataset=?
1002
}
1001
TOPOCAD_8
1002
{
1000
topo:datum=39478.670023
1000
topo:filenaam=U:\OW\Kadaster-0stand-mrt\2008\jan-2008_kl-0092_vst-ahm\200801\0092\02\0092_02.sfn
1002
}
  0
LWPOLYLINE
  5
2931
330
29D7
100
AcDbEntity
  8
T02_F
  6
RASTER
 62
     7
 48
0.1
370
     0
100
AcDbPolyline
 90
        2
 70
     0
 43
0.0
 10
205124.727454
 20
438616.318464
 10
205120.66
 20
438638.35
1001
TOPOCAD_8_LKI
1002
{
1000
lki:bewerking=1
1000
lki:bron=F6
1000
lki:groep=5
1000
lki:klasse=T02
1000
lki:mutatiedatum=0.000000
1000
lki:opnamedatum=34381.000000
1000
lki:precisie=3
1000
lki:status=1
1000
lki:versie=8.0
1000
lki:wijzin=2
1000
lki:zichtbaarheid=0
1002
}
1001
TOPOCAD_8_GBKN
1002
{
1000
gbkn:Layer=T02_F
1002
}
1001
TOPOCAD_8_NGDW
1002
{
1000
ngdw:Dataset=?
1002
}
1001
TOPOCAD_8
1002
{
1000
topo:datum=39478.670023
1000
topo:filenaam=U:\OW\Kadaster-0stand-mrt\2008\jan-2008_kl-0092_vst-ahm\200801\0092\02\0092_02.sfn
1002
}
  0
LWPOLYLINE
  5
2932
330
29D7
100
AcDbEntity
  8
B03_F
  6
Continuous
 62
     7
 48
0.1
370
     0
100
AcDbPolyline
 90
        5
 70
   128
 43
0.0
 10
205047.186
 20
438790.711
 10
205052.506
 20
438774.074
 10
205043.311
 20
438771.067
 10
205037.789
 20
438787.889
 10
205047.186
 20
438790.711
1001
TOPOCAD_8_LKI
1002
{
1000
lki:bewerking=1
1000
lki:bron=F6
1000
lki:groep=5
1000
lki:klasse=B03
1000
lki:mutatiedatum=0.000000
1000
lki:opnamedatum=34381.000000
1000
lki:precisie=3
1000
lki:status=1
1000
lki:versie=8.0
1000
lki:wijzin=2
1000
lki:zichtbaarheid=0
1002
}
1001
TOPOCAD_8_GBKN
1002
{
1000
gbkn:Layer=B03_F
1002
}
1001
TOPOCAD_8_NGDW
1002
{
1000
ngdw:Dataset=?
1002
}
1001
TOPOCAD_8
1002
{
1000
topo:datum=39478.670023
1000
topo:filenaam=U:\OW\Kadaster-0stand-mrt\2008\jan-2008_kl-0092_vst-ahm\200801\0092\02\0092_02.sfn
1002
}
  0
LWPOLYLINE
  5
2933
330
29D7
100
AcDbEntity
  8
B01_T
  6
Continuous
 62
     7
 48
0.1
370
     0
100
AcDbPolyline
 90
        9
 70
   128
 43
0.0
 10
205064.473
 20
438783.401
 10
205064.243
 20
438784.083
 10
205054.685
 20
438780.858
 10
205058.123
 20
438770.667
 10
205067.123
 20
438773.704
 10
205066.96
 20
438774.185
 10
205074.208
 20
438776.63
 10
205071.162
 20
438785.657
 10
205064.473
 20
438783.401
1001
TOPOCAD_8_LKI
1002
{
1000
lki:bewerking=1
1000
lki:bron=NAVER
1000
lki:groep=5
1000
lki:klasse=B01
1000
lki:mutatiedatum=0.000000
1000
lki:opnamedatum=34820.000000
1000
lki:precisie=1
1000
lki:status=1
1000
lki:versie=8.0
1000
lki:wijzin=1
1000
lki:zichtbaarheid=0
1002
}
1001
TOPOCAD_8_GBKN
1002
{
1000
gbkn:Layer=B01_T
1002
}
1001
TOPOCAD_8_NGDW
1002
{
1000
ngdw:Dataset=?
1002
}
1001
TOPOCAD_8
1002
{
1000
topo:datum=39478.670023
1000
topo:filenaam=U:\OW\Kadaster-0stand-mrt\2008\jan-2008_kl-0092_vst-ahm\200801\0092\02\0092_02.sfn
1002
}
  0
LWPOLYLINE
  5
2934
330
29D7
100
AcDbEntity
  8
B14_F
  6
Continuous
 62
     7
 48
0.1
370
     0
100
AcDbPolyline
 90
        6
 70
   128
 43
0.0
 10
205059.172
 20
438750.174
 10
205054.384
 20
438765.591
 10
205042.005
 20
438761.362
 10
205045.188
 20
438750.8
 10
205048.6
 20
438751.799
 10
205049.972
 20
438747.27
1001
TOPOCAD_8_LKI
1002
{
1000
lki:bewerking=1
1000
lki:bron=F6
1000
lki:groep=5
1000
lki:klasse=B14
1000
lki:mutatiedatum=0.000000
1000
lki:opnamedatum=34381.000000
1000
lki:precisie=3
1000
lki:status=1
1000
lki:versie=8.0
1000
lki:wijzin=2
1000
lki:zichtbaarheid=0
1002
}
1001
TOPOCAD_8_GBKN
1002
{
1000
gbkn:Layer=B14_F
1002
}
1001
TOPOCAD_8_NGDW
1002
{
1000
ngdw:Dataset=?
1002
}
1001
TOPOCAD_8
1002
{
1000
topo:datum=39478.670023
1000
topo:filenaam=U:\OW\Kadaster-0stand-mrt\2008\jan-2008_kl-0092_vst-ahm\200801\0092\02\0092_02.sfn
1002
}
  0
LWPOLYLINE
  5
2935
330
29D7
100
AcDbEntity
  8
B14_F
  6
Continuous
 62
     7
 48
0.1
370
     0
100
AcDbPolyline
 90
        5
 70
   128
 43
0.0
 10
205014.115
 20
438778.245
 10
205033.598
 20
438784.732
 10
205037.258
 20
438774.754
 10
205017.554
 20
438768.492
 10
205014.115
 20
438778.245
1001
TOPOCAD_8_LKI
1002
{
1000
lki:bewerking=1
1000
lki:bron=F6
1000
lki:groep=5
1000
lki:klasse=B14
1000
lki:mutatiedatum=0.000000
1000
lki:opnamedatum=34381.000000
1000
lki:precisie=3
1000
lki:status=1
1000
lki:versie=8.0
1000
lki:wijzin=2
1000
lki:zichtbaarheid=0
1002
}
1001
TOPOCAD_8_GBKN
1002
{
1000
gbkn:Layer=B14_F
1002
}
1001
TOPOCAD_8_NGDW
1002
{
1000
ngdw:Dataset=?
1002
}
1001
TOPOCAD_8
1002
{
1000
topo:datum=39478.670023
1000
topo:filenaam=U:\OW\Kadaster-0stand-mrt\2008\jan-2008_kl-0092_vst-ahm\200801\0092\02\0092_02.sfn
1002
}
  0
LWPOLYLINE
  5
2936
330
29D7
100
AcDbEntity
  8
B14_F
  6
Continuous
 62
     7
 48
0.1
370
     0
100
AcDbPolyline
 90
        2
 70
   128
 43
0.0
 10
205049.597
 20
438748.306
 10
205001.818
 20
438732.769
1001
TOPOCAD_8_LKI
1002
{
1000
lki:bewerking=1
1000
lki:bron=F6
1000
lki:groep=5
1000
lki:klasse=B14
1000
lki:mutatiedatum=0.000000
1000
lki:opnamedatum=34381.000000
1000
lki:precisie=3
1000
lki:status=1
1000
lki:versie=8.0
1000
lki:wijzin=2
1000
lki:zichtbaarheid=0
1002
}
1001
TOPOCAD_8_GBKN
1002
{
1000
gbkn:Layer=B14_F
1002
}
1001
TOPOCAD_8_NGDW
1002
{
1000
ngdw:Dataset=?
1002
}
1001
TOPOCAD_8
1002
{
1000
topo:datum=39478.670023
1000
topo:filenaam=U:\OW\Kadaster-0stand-mrt\2008\jan-2008_kl-0092_vst-ahm\200801\0092\02\0092_02.sfn
1002
}
  0
LWPOLYLINE
  5
2937
330
29D7
100
AcDbEntity
  8
T02_F
  6
RASTER
 62
     7
 48
0.1
370
     0
100
AcDbPolyline
 90
        4
 70
     0
 43
0.0
 10
205000.0
 20
438791.621
 10
205036.601
 20
438800.919
 10
205038.316
 20
438788.206
 10
205037.789
 20
438787.889
1001
TOPOCAD_8_LKI
1002
{
1000
lki:bewerking=1
1000
lki:bron=F6
1000
lki:groep=5
1000
lki:klasse=T02
1000
lki:mutatiedatum=0.000000
1000
lki:opnamedatum=34381.000000
1000
lki:precisie=3
1000
lki:status=1
1000
lki:versie=8.0
1000
lki:wijzin=2
1000
lki:zichtbaarheid=0
1002
}
1001
TOPOCAD_8_GBKN
1002
{
1000
gbkn:Layer=T02_F
1002
}
1001
TOPOCAD_8_NGDW
1002
{
1000
ngdw:Dataset=?
1002
}
1001
TOPOCAD_8
1002
{
1000
topo:datum=39478.670023
1000
topo:filenaam=U:\OW\Kadaster-0stand-mrt\2008\jan-2008_kl-0092_vst-ahm\200801\0092\02\0092_02.sfn
1002
}
  0
LWPOLYLINE
  5
2938
330
29D7
100
AcDbEntity
  8
T09_F
  6
Continuous
 62
     7
 48
0.1
370
     0
100
AcDbPolyline
 90
        5
 70
   128
 43
0.0
 10
205096.295
 20
438783.094
 10
205097.339
 20
438780.281
 10
205098.527
 20
438778.74
 10
205099.833
 20
438778.137
 10
205107.786
 20
438776.789
1001
TOPOCAD_8_LKI
1002
{
1000
lki:bewerking=1
1000
lki:bron=F6
1000
lki:groep=5
1000
lki:klasse=T09
1000
lki:mutatiedatum=0.000000
1000
lki:opnamedatum=34381.000000
1000
lki:precisie=3
1000
lki:status=1
1000
lki:versie=8.0
1000
lki:wijzin=2
1000
lki:zichtbaarheid=0
1002
}
1001
TOPOCAD_8_GBKN
1002
{
1000
gbkn:Layer=T09_F
1002
}
1001
TOPOCAD_8_NGDW
1002
{
1000
ngdw:Dataset=?
1002
}
1001
TOPOCAD_8
1002
{
1000
topo:datum=39478.670023
1000
topo:filenaam=U:\OW\Kadaster-0stand-mrt\2008\jan-2008_kl-0092_vst-ahm\200801\0092\02\0092_02.sfn
1002
}
  0
LWPOLYLINE
  5
2940
330
29D7
100
AcDbEntity
  8
T04_F
  6
HAAG
 62
     7
 48
0.1
370
     0
100
AcDbPolyline
 90
        2
 70
     0
 43
0.0
 10
205089.239
 20
438844.288
 10
205088.842
 20
438828.557
1001
TOPOCAD_8_LKI
1002
{
1000
lki:bewerking=1
1000
lki:bron=F6
1000
lki:groep=5
1000
lki:klasse=T04
1000
lki:mutatiedatum=0.000000
1000
lki:opnamedatum=34381.000000
1000
lki:precisie=3
1000
lki:status=1
1000
lki:versie=8.0
1000
lki:wijzin=2
1000
lki:zichtbaarheid=0
1002
}
1001
TOPOCAD_8_GBKN
1002
{
1000
gbkn:Layer=T04_F
1002
}
1001
TOPOCAD_8_NGDW
1002
{
1000
ngdw:Dataset=?
1002
}
1001
TOPOCAD_8
1002
{
1000
topo:datum=39478.670023
1000
topo:filenaam=U:\OW\Kadaster-0stand-mrt\2008\jan-2008_kl-0092_vst-ahm\200801\0092\02\0092_02.sfn
1002
}
  0
LWPOLYLINE
  5
2941
330
29D7
100
AcDbEntity
  8
B03_F
  6
Continuous
 62
     7
 48
0.1
370
     0
100
AcDbPolyline
 90
        5
 70
   128
 43
0.0
 10
205176.868
 20
438688.39
 10
205163.817
 20
438686.494
 10
205164.854
 20
438678.944
 10
205178.196
 20
438680.732
 10
205176.868
 20
438688.39
1001
TOPOCAD_8_LKI
1002
{
1000
lki:bewerking=1
1000
lki:bron=F6
1000
lki:groep=5
1000
lki:klasse=B03
1000
lki:mutatiedatum=0.000000
1000
lki:opnamedatum=34381.000000
1000
lki:precisie=3
1000
lki:status=1
1000
lki:versie=8.0
1000
lki:wijzin=2
1000
lki:zichtbaarheid=0
1002
}
1001
TOPOCAD_8_GBKN
1002
{
1000
gbkn:Layer=B03_F
1002
}
1001
TOPOCAD_8_NGDW
1002
{
1000
ngdw:Dataset=?
1002
}
1001
TOPOCAD_8
1002
{
1000
topo:datum=39478.670023
1000
topo:filenaam=U:\OW\Kadaster-0stand-mrt\2008\jan-2008_kl-0092_vst-ahm\200801\0092\02\0092_02.sfn
1002
}
  0
LWPOLYLINE
  5
2942
330
29D7
100
AcDbEntity
  8
B03_F
  6
Continuous
 62
     7
 48
0.1
370
     0
100
AcDbPolyline
 90
        5
 70
   128
 43
0.0
 10
205167.833
 20
438697.1
 10
205163.082
 20
438696.19
 10
205164.145
 20
438688.994
 10
205169.0
 20
438689.841
 10
205167.833
 20
438697.1
1001
TOPOCAD_8_LKI
1002
{
1000
lki:bewerking=1
1000
lki:bron=F6
1000
lki:groep=5
1000
lki:klasse=B03
1000
lki:mutatiedatum=0.000000
1000
lki:opnamedatum=34381.000000
1000
lki:precisie=3
1000
lki:status=1
1000
lki:versie=8.0
1000
lki:wijzin=2
1000
lki:zichtbaarheid=0
1002
}
1001
TOPOCAD_8_GBKN
1002
{
1000
gbkn:Layer=B03_F
1002
}
1001
TOPOCAD_8_NGDW
1002
{
1000
ngdw:Dataset=?
1002
}
1001
TOPOCAD_8
1002
{
1000
topo:datum=39478.670023
1000
topo:filenaam=U:\OW\Kadaster-0stand-mrt\2008\jan-2008_kl-0092_vst-ahm\200801\0092\02\0092_02.sfn
1002
}
  0
LWPOLYLINE
  5
2943
330
29D7
100
AcDbEntity
  8
B01_T
  6
Continuous
 62
     7
 48
0.1
370
     0
100
AcDbPolyline
 90
        5
 70
   128
 43
0.0
 10
205152.454
 20
438683.724
 10
205153.318
 20
438676.119
 10
205142.899
 20
438674.935
 10
205142.034
 20
438682.539
 10
205152.454
 20
438683.724
1001
TOPOCAD_8_LKI
1002
{
1000
lki:bewerking=1
1000
lki:bron=NAVER
1000
lki:groep=5
1000
lki:klasse=B01
1000
lki:mutatiedatum=0.000000
1000
lki:opnamedatum=34820.000000
1000
lki:precisie=1
1000
lki:status=1
1000
lki:versie=8.0
1000
lki:wijzin=1
1000
lki:zichtbaarheid=0
1002
}
1001
TOPOCAD_8_GBKN
1002
{
1000
gbkn:Layer=B01_T
1002
}
1001
TOPOCAD_8_NGDW
1002
{
1000
ngdw:Dataset=?
1002
}
1001
TOPOCAD_8
1002
{
1000
topo:datum=39478.670023
1000
topo:filenaam=U:\OW\Kadaster-0stand-mrt\2008\jan-2008_kl-0092_vst-ahm\200801\0092\02\0092_02.sfn
1002
}
  0
LWPOLYLINE
  5
2944
330
29D7
100
AcDbEntity
  8
B14_F
  6
Continuous
 62
     7
 48
0.1
370
     0
100
AcDbPolyline
 90
        9
 70
   128
 43
0.0
 10
205148.977
 20
438683.623
 10
205147.673
 20
438691.531
 10
205139.519
 20
438690.524
 10
205138.733
 20
438696.692
 10
205158.709
 20
438699.697
 10
205159.887
 20
438691.812
 10
205158.675
 20
438691.746
 10
205160.121
 20
438682.145
 10
205152.654
 20
438681.066
1001
TOPOCAD_8_LKI
1002
{
1000
lki:bewerking=1
1000
lki:bron=F6
1000
lki:groep=5
1000
lki:klasse=B14
1000
lki:mutatiedatum=0.000000
1000
lki:opnamedatum=34381.000000
1000
lki:precisie=3
1000
lki:status=1
1000
lki:versie=8.0
1000
lki:wijzin=2
1000
lki:zichtbaarheid=0
1002
}
1001
TOPOCAD_8_GBKN
1002
{
1000
gbkn:Layer=B14_F
1002
}
1001
TOPOCAD_8_NGDW
1002
{
1000
ngdw:Dataset=?
1002
}
1001
TOPOCAD_8
1002
{
1000
topo:datum=39478.670023
1000
topo:filenaam=U:\OW\Kadaster-0stand-mrt\2008\jan-2008_kl-0092_vst-ahm\200801\0092\02\0092_02.sfn
1002
}
  0
LWPOLYLINE
  5
2945
330
29D7
100
AcDbEntity
  8
V00_F
  6
Continuous
 62
     7
 48
0.1
370
     0
100
AcDbPolyline
 90
        3
 70
   128
 43
0.0
 10
205085.51
 20
438780.096
 10
205088.339
 20
438770.473
 10
205090.507
 20
438765.48
1001
TOPOCAD_8_LKI
1002
{
1000
lki:bewerking=1
1000
lki:bron=F6
1000
lki:groep=5
1000
lki:klasse=V00
1000
lki:mutatiedatum=0.000000
1000
lki:opnamedatum=34381.000000
1000
lki:precisie=3
1000
lki:status=1
1000
lki:versie=8.0
1000
lki:wijzin=2
1000
lki:zichtbaarheid=0
1002
}
1001
TOPOCAD_8_GBKN
1002
{
1000
gbkn:Layer=V00_F
1002
}
1001
TOPOCAD_8_NGDW
1002
{
1000
ngdw:Dataset=?
1002
}
1001
TOPOCAD_8
1002
{
1000
topo:datum=39478.670023
1000
topo:filenaam=U:\OW\Kadaster-0stand-mrt\2008\jan-2008_kl-0092_vst-ahm\200801\0092\02\0092_02.sfn
1002
}
  0
LWPOLYLINE
  5
2946
330
29D7
100
AcDbEntity
  8
V00_F
  6
Continuous
 62
     7
 48
0.1
370
     0
100
AcDbPolyline
 90
       11
 70
   128
 43
0.0
 10
205090.507
 20
438765.48
 10
205089.836
 20
438766.874
 10
205089.459
 20
438767.607
 10
205089.02
 20
438768.279
 10
205088.46
 20
438768.933
 10
205087.676
 20
438769.548
 10
205086.869
 20
438769.84
 10
205085.877
 20
438769.85
 10
205084.539
 20
438769.64
 10
205083.199
 20
438769.289
 10
205081.979
 20
438768.816
1001
TOPOCAD_8_LKI
1002
{
1000
lki:bewerking=1
1000
lki:bron=F6
1000
lki:groep=5
1000
lki:klasse=V00
1000
lki:mutatiedatum=0.000000
1000
lki:opnamedatum=34381.000000
1000
lki:precisie=3
1000
lki:status=1
1000
lki:versie=8.0
1000
lki:wijzin=2
1000
lki:zichtbaarheid=0
1002
}
1001
TOPOCAD_8_GBKN
1002
{
1000
gbkn:Layer=V00_F
1002
}
1001
TOPOCAD_8_NGDW
1002
{
1000
ngdw:Dataset=?
1002
}
1001
TOPOCAD_8
1002
{
1000
topo:datum=39478.670023
1000
topo:filenaam=U:\OW\Kadaster-0stand-mrt\2008\jan-2008_kl-0092_vst-ahm\200801\0092\02\0092_02.sfn
1002
}
  0
LWPOLYLINE
  5
2947
330
29D7
100
AcDbEntity
  8
V00_F
  6
Continuous
 62
     7
 48
0.1
370
     0
100
AcDbPolyline
 90
       10
 70
   128
 43
0.0
 10
205085.51
 20
438780.096
 10
205084.757
 20
438779.378
 10
205084.788
 20
438778.446
 10
205084.778
 20
438777.393
 10
205084.686
 20
438776.341
 10
205084.376
 20
438775.676
 10
205083.761
 20
438774.974
 10
205083.128
 20
438774.413
 10
205082.434
 20
438773.893
 10
205081.661
 20
438773.516
1001
TOPOCAD_8_LKI
1002
{
1000
lki:bewerking=1
1000
lki:bron=F6
1000
lki:groep=5
1000
lki:klasse=V00
1000
lki:mutatiedatum=0.000000
1000
lki:opnamedatum=34381.000000
1000
lki:precisie=3
1000
lki:status=1
1000
lki:versie=8.0
1000
lki:wijzin=2
1000
lki:zichtbaarheid=0
1002
}
1001
TOPOCAD_8_GBKN
1002
{
1000
gbkn:Layer=V00_F
1002
}
1001
TOPOCAD_8_NGDW
1002
{
1000
ngdw:Dataset=?
1002
}
1001
TOPOCAD_8
1002
{
1000
topo:datum=39478.670023
1000
topo:filenaam=U:\OW\Kadaster-0stand-mrt\2008\jan-2008_kl-0092_vst-ahm\200801\0092\02\0092_02.sfn
1002
}
  0
LWPOLYLINE
  5
2948
330
29D7
100
AcDbEntity
  8
V00_F
  6
Continuous
 62
     7
 48
0.1
370
     0
100
AcDbPolyline
 90
        3
 70
   128
 43
0.0
 10
205081.979
 20
438768.816
 10
205081.004
 20
438768.481
 10
205081.979
 20
438768.816
1001
TOPOCAD_8_LKI
1002
{
1000
lki:bewerking=1
1000
lki:bron=F6
1000
lki:groep=5
1000
lki:klasse=V00
1000
lki:mutatiedatum=0.000000
1000
lki:opnamedatum=34381.000000
1000
lki:precisie=3
1000
lki:status=1
1000
lki:versie=8.0
1000
lki:wijzin=2
1000
lki:zichtbaarheid=0
1002
}
1001
TOPOCAD_8_GBKN
1002
{
1000
gbkn:Layer=V00_F
1002
}
1001
TOPOCAD_8_NGDW
1002
{
1000
ngdw:Dataset=?
1002
}
1001
TOPOCAD_8
1002
{
1000
topo:datum=39478.670023
1000
topo:filenaam=U:\OW\Kadaster-0stand-mrt\2008\jan-2008_kl-0092_vst-ahm\200801\0092\02\0092_02.sfn
1002
}
  0
LWPOLYLINE
  5
2949
330
29D7
100
AcDbEntity
  8
V00_T
  6
Continuous
 62
     7
 48
0.1
370
     0
100
AcDbPolyline
 90
        3
 70
   128
 43
0.0
 10
205069.356
 20
438791.011
 10
205078.186
 20
438793.619
 10
205082.068
 20
438793.279
1001
TOPOCAD_8_LKI
1002
{
1000
lki:bewerking=1
1000
lki:bron=BYH97
1000
lki:groep=5
1000
lki:klasse=V00
1000
lki:mutatiedatum=0.000000
1000
lki:opnamedatum=35612.000000
1000
lki:precisie=1
1000
lki:status=1
1000
lki:versie=8.0
1000
lki:wijzin=1
1000
lki:zichtbaarheid=0
1002
}
1001
TOPOCAD_8_GBKN
1002
{
1000
gbkn:Layer=V00_T
1002
}
1001
TOPOCAD_8_NGDW
1002
{
1000
ngdw:Dataset=?
1002
}
1001
TOPOCAD_8
1002
{
1000
topo:datum=39478.670023
1000
topo:filenaam=U:\OW\Kadaster-0stand-mrt\2008\jan-2008_kl-0092_vst-ahm\200801\0092\02\0092_02.sfn
1002
}
  0
LWPOLYLINE
  5
294A
330
29D7
100
AcDbEntity
  8
V00_T
  6
Continuous
 62
     7
 48
0.1
370
     0
100
AcDbPolyline
 90
        3
 70
   128
 43
0.0
 10
205068.19
 20
438794.469
 10
205077.019
 20
438797.078
 10
205081.459
 20
438799.851
1001
TOPOCAD_8_LKI
1002
{
1000
lki:bewerking=1
1000
lki:bron=BYH97
1000
lki:groep=5
1000
lki:klasse=V00
1000
lki:mutatiedatum=0.000000
1000
lki:opnamedatum=35612.000000
1000
lki:precisie=1
1000
lki:status=1
1000
lki:versie=8.0
1000
lki:wijzin=1
1000
lki:zichtbaarheid=0
1002
}
1001
TOPOCAD_8_GBKN
1002
{
1000
gbkn:Layer=V00_T
1002
}
1001
TOPOCAD_8_NGDW
1002
{
1000
ngdw:Dataset=?
1002
}
1001
TOPOCAD_8
1002
{
1000
topo:datum=39478.670023
1000
topo:filenaam=U:\OW\Kadaster-0stand-mrt\2008\jan-2008_kl-0092_vst-ahm\200801\0092\02\0092_02.sfn
1002
}
  0
LWPOLYLINE
  5
294B
330
29D7
100
AcDbEntity
  8
B01_T
  6
Continuous
 62
     7
 48
0.1
370
     0
100
AcDbPolyline
 90
        5
 70
   128
 43
0.0
 10
205108.781
 20
438856.143
 10
205109.335
 20
438847.523
 10
205098.134
 20
438846.804
 10
205097.58
 20
438855.424
 10
205108.781
 20
438856.143
1001
TOPOCAD_8_LKI
1002
{
1000
lki:bewerking=1
1000
lki:bron=NAVER
1000
lki:groep=5
1000
lki:klasse=B01
1000
lki:mutatiedatum=0.000000
1000
lki:opnamedatum=34820.000000
1000
lki:precisie=1
1000
lki:status=1
1000
lki:versie=8.0
1000
lki:wijzin=1
1000
lki:zichtbaarheid=0
1002
}
1001
TOPOCAD_8_GBKN
1002
{
1000
gbkn:Layer=B01_T
1002
}
1001
TOPOCAD_8_NGDW
1002
{
1000
ngdw:Dataset=?
1002
}
1001
TOPOCAD_8
1002
{
1000
topo:datum=39478.670023
1000
topo:filenaam=U:\OW\Kadaster-0stand-mrt\2008\jan-2008_kl-0092_vst-ahm\200801\0092\02\0092_02.sfn
1002
}
  0
LWPOLYLINE
  5
294C
330
29D7
100
AcDbEntity
  8
V00_T
  6
Continuous
 62
     7
 48
0.1
370
     0
100
AcDbPolyline
 90
        2
 70
   128
 43
0.0
 10
205121.469
 20
438638.358
 10
205112.257
 20
438638.518
1001
TOPOCAD_8_LKI
1002
{
1000
lki:bewerking=1
1000
lki:bron=BYH97
1000
lki:groep=5
1000
lki:klasse=V00
1000
lki:mutatiedatum=0.000000
1000
lki:opnamedatum=35612.000000
1000
lki:precisie=3
1000
lki:status=1
1000
lki:versie=8.0
1000
lki:wijzin=1
1000
lki:zichtbaarheid=0
1002
}
1001
TOPOCAD_8_GBKN
1002
{
1000
gbkn:Layer=V00_T
1002
}
1001
TOPOCAD_8_NGDW
1002
{
1000
ngdw:Dataset=?
1002
}
1001
TOPOCAD_8
1002
{
1000
topo:datum=39478.670023
1000
topo:filenaam=U:\OW\Kadaster-0stand-mrt\2008\jan-2008_kl-0092_vst-ahm\200801\0092\02\0092_02.sfn
1002
}
  0
LWPOLYLINE
  5
294D
330
29D7
100
AcDbEntity
  8
V00_T
  6
Continuous
 62
     7
 48
0.1
370
     0
100
AcDbPolyline
 90
        2
 70
   128
 43
0.0
 10
205111.25
 20
438644.027
 10
205119.909
 20
438645.694
1001
TOPOCAD_8_LKI
1002
{
1000
lki:bewerking=1
1000
lki:bron=BYH97
1000
lki:groep=5
1000
lki:klasse=V00
1000
lki:mutatiedatum=0.000000
1000
lki:opnamedatum=35612.000000
1000
lki:precisie=3
1000
lki:status=1
1000
lki:versie=8.0
1000
lki:wijzin=1
1000
lki:zichtbaarheid=0
1002
}
1001
TOPOCAD_8_GBKN
1002
{
1000
gbkn:Layer=V00_T
1002
}
1001
TOPOCAD_8_NGDW
1002
{
1000
ngdw:Dataset=?
1002
}
1001
TOPOCAD_8
1002
{
1000
topo:datum=39478.670023
1000
topo:filenaam=U:\OW\Kadaster-0stand-mrt\2008\jan-2008_kl-0092_vst-ahm\200801\0092\02\0092_02.sfn
1002
}
  0
LWPOLYLINE
  5
294E
330
29D7
100
AcDbEntity
  8
W01_F
  6
Continuous
 62
     7
 48
0.1
370
     0
100
AcDbPolyline
 90
       17
 70
   128
 43
0.0
 10
205136.947931
 20
438616.318464
 10
205135.14
 20
438625.218
 10
205133.325
 20
438633.865
 10
205132.434
 20
438638.532
 10
205132.057
 20
438639.873
 10
205131.858
 20
438640.523
 10
205131.734
 20
438640.609
 10
205131.443
 20
438640.717
 10
205131.171
 20
438640.7
 10
205130.878
 20
438640.642
 10
205130.626
 20
438640.479
 10
205130.455
 20
438640.252
 10
205130.346
 20
438639.898
 10
205130.359
 20
438639.397
 10
205130.456
 20
438638.874
 10
205133.134
 20
438627.94
 10
205135.390574
 20
438616.318464
1001
TOPOCAD_8_LKI
1002
{
1000
lki:bewerking=1
1000
lki:bron=F6
1000
lki:groep=5
1000
lki:klasse=W01
1000
lki:mutatiedatum=0.000000
1000
lki:opnamedatum=34381.000000
1000
lki:precisie=3
1000
lki:status=1
1000
lki:versie=8.0
1000
lki:wijzin=2
1000
lki:zichtbaarheid=0
1002
}
1001
TOPOCAD_8_GBKN
1002
{
1000
gbkn:Layer=W01_F
1002
}
1001
TOPOCAD_8_NGDW
1002
{
1000
ngdw:Dataset=?
1002
}
1001
TOPOCAD_8
1002
{
1000
topo:datum=39478.670023
1000
topo:filenaam=U:\OW\Kadaster-0stand-mrt\2008\jan-2008_kl-0092_vst-ahm\200801\0092\02\0092_02.sfn
1002
}
  0
LWPOLYLINE
  5
294F
330
29D7
100
AcDbEntity
  8
W01_F
  6
Continuous
 62
     7
 48
0.1
370
     0
100
AcDbPolyline
 90
        5
 70
   128
 43
0.0
 10
205126.459
 20
438663.77
 10
205126.686
 20
438663.62
 10
205126.871
 20
438663.409
 10
205127.115
 20
438662.988
 10
205127.826
 20
438658.824
1001
TOPOCAD_8_LKI
1002
{
1000
lki:bewerking=1
1000
lki:bron=F6
1000
lki:groep=5
1000
lki:klasse=W01
1000
lki:mutatiedatum=0.000000
1000
lki:opnamedatum=34381.000000
1000
lki:precisie=3
1000
lki:status=1
1000
lki:versie=8.0
1000
lki:wijzin=2
1000
lki:zichtbaarheid=0
1002
}
1001
TOPOCAD_8_GBKN
1002
{
1000
gbkn:Layer=W01_F
1002
}
1001
TOPOCAD_8_NGDW
1002
{
1000
ngdw:Dataset=?
1002
}
1001
TOPOCAD_8
1002
{
1000
topo:datum=39478.670023
1000
topo:filenaam=U:\OW\Kadaster-0stand-mrt\2008\jan-2008_kl-0092_vst-ahm\200801\0092\02\0092_02.sfn
1002
}
  0
LWPOLYLINE
  5
2950
330
29D7
100
AcDbEntity
  8
W01_F
  6
Continuous
 62
     7
 48
0.1
370
     0
100
AcDbPolyline
 90
       32
 70
   128
 43
0.0
 10
205127.826
 20
438658.824
 10
205129.507
 20
438649.616
 10
205129.964
 20
438648.023
 10
205130.139
 20
438647.186
 10
205130.135
 20
438646.914
 10
205130.11
 20
438646.622
 10
205130.045
 20
438646.436
 10
205129.959
 20
438646.291
 10
205129.79
 20
438646.126
 10
205129.622
 20
438646.024
 10
205129.348
 20
438645.903
 10
205129.055
 20
438645.845
 10
205128.784
 20
438645.849
 10
205128.597
 20
438645.893
 10
205128.39
 20
438646.022
 10
205128.226
 20
438646.191
 10
205128.021
 20
438646.465
 10
205127.716
 20
438647.054
 10
205127.477
 20
438647.809
 10
205127.262
 20
438648.793
 10
205124.99
 20
438661.808
 10
205124.973
 20
438662.059
 10
205124.956
 20
438662.351
 10
205124.981
 20
438662.602
 10
205125.005
 20
438662.852
 10
205125.092
 20
438663.101
 10
205125.242
 20
438663.328
 10
205125.433
 20
438663.534
 10
205125.707
 20
438663.76
 10
205125.959
 20
438663.839
 10
205126.23
 20
438663.835
 10
205126.459
 20
438663.77
1001
TOPOCAD_8_LKI
1002
{
1000
lki:bewerking=1
1000
lki:bron=F6
1000
lki:groep=5
1000
lki:klasse=W01
1000
lki:mutatiedatum=0.000000
1000
lki:opnamedatum=34381.000000
1000
lki:precisie=3
1000
lki:status=1
1000
lki:versie=8.0
1000
lki:wijzin=2
1000
lki:zichtbaarheid=0
1002
}
1001
TOPOCAD_8_GBKN
1002
{
1000
gbkn:Layer=W01_F
1002
}
1001
TOPOCAD_8_NGDW
1002
{
1000
ngdw:Dataset=?
1002
}
1001
TOPOCAD_8
1002
{
1000
topo:datum=39478.670023
1000
topo:filenaam=U:\OW\Kadaster-0stand-mrt\2008\jan-2008_kl-0092_vst-ahm\200801\0092\02\0092_02.sfn
1002
}
  0
LWPOLYLINE
  5
2951
330
29D7
100
AcDbEntity
  8
T09_F
  6
Continuous
 62
     7
 48
0.1
370
     0
100
AcDbPolyline
 90
       10
 70
   128
 43
0.0
 10
205000.0
 20
438690.037
 10
205043.864
 20
438704.807
 10
205044.756
 20
438704.92
 10
205045.076
 20
438704.552
 10
205045.431
 20
438703.516
 10
205045.422
 20
438702.605
 10
205044.524
 20
438701.844
 10
205042.694
 20
438701.114
 10
205006.417
 20
438689.693
 10
205000.0
 20
438687.515
1001
TOPOCAD_8_LKI
1002
{
1000
lki:bewerking=1
1000
lki:bron=F6
1000
lki:groep=5
1000
lki:klasse=T09
1000
lki:mutatiedatum=0.000000
1000
lki:opnamedatum=34381.000000
1000
lki:precisie=3
1000
lki:status=1
1000
lki:versie=8.0
1000
lki:wijzin=2
1000
lki:zichtbaarheid=0
1002
}
1001
TOPOCAD_8_GBKN
1002
{
1000
gbkn:Layer=T09_F
1002
}
1001
TOPOCAD_8_NGDW
1002
{
1000
ngdw:Dataset=?
1002
}
1001
TOPOCAD_8
1002
{
1000
topo:datum=39478.670023
1000
topo:filenaam=U:\OW\Kadaster-0stand-mrt\2008\jan-2008_kl-0092_vst-ahm\200801\0092\02\0092_02.sfn
1002
}
  0
LWPOLYLINE
  5
2952
330
29D7
100
AcDbEntity
  8
T02_F
  6
RASTER
 62
     7
 48
0.1
370
     0
100
AcDbPolyline
 90
        2
 70
     0
 43
0.0
 10
205064.475981
 20
438616.318464
 10
205045.431
 20
438703.516
1001
TOPOCAD_8_LKI
1002
{
1000
lki:bewerking=1
1000
lki:bron=F6
1000
lki:groep=5
1000
lki:klasse=T02
1000
lki:mutatiedatum=0.000000
1000
lki:opnamedatum=34381.000000
1000
lki:precisie=3
1000
lki:status=1
1000
lki:versie=8.0
1000
lki:wijzin=2
1000
lki:zichtbaarheid=0
1002
}
1001
TOPOCAD_8_GBKN
1002
{
1000
gbkn:Layer=T02_F
1002
}
1001
TOPOCAD_8_NGDW
1002
{
1000
ngdw:Dataset=?
1002
}
1001
TOPOCAD_8
1002
{
1000
topo:datum=39478.670023
1000
topo:filenaam=U:\OW\Kadaster-0stand-mrt\2008\jan-2008_kl-0092_vst-ahm\200801\0092\02\0092_02.sfn
1002
}
  0
LWPOLYLINE
  5
2953
330
29D7
100
AcDbEntity
  8
V00_F
  6
Continuous
 62
     7
 48
0.1
370
     0
100
AcDbPolyline
 90
       16
 70
   128
 43
0.0
 10
205087.555
 20
438787.064
 10
205087.566
 20
438788.117
 10
205087.615
 20
438788.987
 10
205087.786
 20
438789.835
 10
205087.972
 20
438790.218
 10
205088.198
 20
438790.54
 10
205088.811
 20
438791.182
 10
205089.465
 20
438791.702
 10
205090.137
 20
438792.12
 10
205091.255
 20
438792.595
 10
205092.432
 20
438792.786
 10
205094.112
 20
438792.769
 10
205096.48
 20
438792.664
 10
205097.937
 20
438792.568
 10
205120.174
 20
438788.923
 10
205137.684
 20
438786.338
1001
TOPOCAD_8_LKI
1002
{
1000
lki:bewerking=1
1000
lki:bron=F6
1000
lki:groep=5
1000
lki:klasse=V00
1000
lki:mutatiedatum=0.000000
1000
lki:opnamedatum=34381.000000
1000
lki:precisie=3
1000
lki:status=1
1000
lki:versie=8.0
1000
lki:wijzin=2
1000
lki:zichtbaarheid=0
1002
}
1001
TOPOCAD_8_GBKN
1002
{
1000
gbkn:Layer=V00_F
1002
}
1001
TOPOCAD_8_NGDW
1002
{
1000
ngdw:Dataset=?
1002
}
1001
TOPOCAD_8
1002
{
1000
topo:datum=39478.670023
1000
topo:filenaam=U:\OW\Kadaster-0stand-mrt\2008\jan-2008_kl-0092_vst-ahm\200801\0092\02\0092_02.sfn
1002
}
  0
LWPOLYLINE
  5
2954
330
29D7
100
AcDbEntity
  8
V00_F
  6
Continuous
 62
     7
 48
0.1
370
     0
100
AcDbPolyline
 90
       10
 70
   128
 43
0.0
 10
205137.109
 20
438789.665
 10
205091.553
 20
438796.136
 10
205089.86
 20
438796.922
 10
205088.935
 20
438797.539
 10
205088.031
 20
438798.256
 10
205087.07
 20
438799.278
 10
205086.551
 20
438800.094
 10
205086.095
 20
438801.03
 10
205085.761
 20
438802.045
 10
205085.454
 20
438803.749
1001
TOPOCAD_8_LKI
1002
{
1000
lki:bewerking=1
1000
lki:bron=F6
1000
lki:groep=5
1000
lki:klasse=V00
1000
lki:mutatiedatum=0.000000
1000
lki:opnamedatum=34381.000000
1000
lki:precisie=3
1000
lki:status=1
1000
lki:versie=8.0
1000
lki:wijzin=2
1000
lki:zichtbaarheid=0
1002
}
1001
TOPOCAD_8_GBKN
1002
{
1000
gbkn:Layer=V00_F
1002
}
1001
TOPOCAD_8_NGDW
1002
{
1000
ngdw:Dataset=?
1002
}
1001
TOPOCAD_8
1002
{
1000
topo:datum=39478.670023
1000
topo:filenaam=U:\OW\Kadaster-0stand-mrt\2008\jan-2008_kl-0092_vst-ahm\200801\0092\02\0092_02.sfn
1002
}
  0
LWPOLYLINE
  5
2955
330
29D7
100
AcDbEntity
  8
V00_T
  6
Continuous
 62
     7
 48
0.1
370
     0
100
AcDbPolyline
 90
        3
 70
   128
 43
0.0
 10
205087.555
 20
438787.064
 10
205086.335
 20
438794.08
 10
205085.454
 20
438803.749
1001
TOPOCAD_8_LKI
1002
{
1000
lki:bewerking=1
1000
lki:bron=NAVER
1000
lki:groep=5
1000
lki:klasse=V00
1000
lki:mutatiedatum=0.000000
1000
lki:opnamedatum=34851.000000
1000
lki:precisie=1
1000
lki:status=1
1000
lki:versie=8.0
1000
lki:wijzin=1
1000
lki:zichtbaarheid=0
1002
}
1001
TOPOCAD_8_GBKN
1002
{
1000
gbkn:Layer=V00_T
1002
}
1001
TOPOCAD_8_NGDW
1002
{
1000
ngdw:Dataset=?
1002
}
1001
TOPOCAD_8
1002
{
1000
topo:datum=39478.670023
1000
topo:filenaam=U:\OW\Kadaster-0stand-mrt\2008\jan-2008_kl-0092_vst-ahm\200801\0092\02\0092_02.sfn
1002
}
  0
LWPOLYLINE
  5
2956
330
29D7
100
AcDbEntity
  8
T09_F
  6
Continuous
 62
     7
 48
0.1
370
     0
100
AcDbPolyline
 90
       11
 70
   128
 43
0.0
 10
205099.231
 20
438720.922
 10
205104.674
 20
438691.806
 10
205104.904
 20
438690.548
 10
205104.8
 20
438690.246
 10
205104.575
 20
438690.086
 10
205104.291
 20
438690.048
 10
205103.746
 20
438690.175
 10
205103.364
 20
438690.483
 10
205102.891
 20
438691.723
 10
205102.386
 20
438693.833
 10
205096.496
 20
438720.297
1001
TOPOCAD_8_LKI
1002
{
1000
lki:bewerking=1
1000
lki:bron=F6
1000
lki:groep=5
1000
lki:klasse=T09
1000
lki:mutatiedatum=0.000000
1000
lki:opnamedatum=35612.000000
1000
lki:precisie=3
1000
lki:status=1
1000
lki:versie=8.0
1000
lki:wijzin=2
1000
lki:zichtbaarheid=0
1002
}
1001
TOPOCAD_8_GBKN
1002
{
1000
gbkn:Layer=T09_F
1002
}
1001
TOPOCAD_8_NGDW
1002
{
1000
ngdw:Dataset=?
1002
}
1001
TOPOCAD_8
1002
{
1000
topo:datum=39478.670023
1000
topo:filenaam=U:\OW\Kadaster-0stand-mrt\2008\jan-2008_kl-0092_vst-ahm\200801\0092\02\0092_02.sfn
1002
}
  0
LWPOLYLINE
  5
2957
330
29D7
100
AcDbEntity
  8
T02_F
  6
RASTER
 62
     7
 48
0.1
370
     0
100
AcDbPolyline
 90
        3
 70
     0
 43
0.0
 10
205194.4477
 20
438676.854116
 10
205189.21
 20
438708.746
 10
205194.4477
 20
438708.923049
1001
TOPOCAD_8_LKI
1002
{
1000
lki:bewerking=1
1000
lki:bron=F6
1000
lki:groep=5
1000
lki:klasse=T02
1000
lki:mutatiedatum=0.000000
1000
lki:opnamedatum=34381.000000
1000
lki:precisie=3
1000
lki:status=1
1000
lki:versie=8.0
1000
lki:wijzin=2
1000
lki:zichtbaarheid=0
1002
}
1001
TOPOCAD_8_GBKN
1002
{
1000
gbkn:Layer=T02_F
1002
}
1001
TOPOCAD_8_NGDW
1002
{
1000
ngdw:Dataset=?
1002
}
1001
TOPOCAD_8
1002
{
1000
topo:datum=39478.670023
1000
topo:filenaam=U:\OW\Kadaster-0stand-mrt\2008\jan-2008_kl-0092_vst-ahm\200801\0092\02\0092_02.sfn
1002
}
  0
LWPOLYLINE
  5
2958
330
29D7
100
AcDbEntity
  8
T02_F
  6
RASTER
 62
     7
 48
0.1
370
     0
100
AcDbPolyline
 90
        2
 70
     0
 43
0.0
 10
205088.842
 20
438828.557
 10
205194.4477
 20
438845.262049
1001
TOPOCAD_8_LKI
1002
{
1000
lki:bewerking=1
1000
lki:bron=F6
1000
lki:groep=5
1000
lki:klasse=T02
1000
lki:mutatiedatum=0.000000
1000
lki:opnamedatum=34381.000000
1000
lki:precisie=3
1000
lki:status=1
1000
lki:versie=8.0
1000
lki:wijzin=2
1000
lki:zichtbaarheid=0
1002
}
1001
TOPOCAD_8_GBKN
1002
{
1000
gbkn:Layer=T02_F
1002
}
1001
TOPOCAD_8_NGDW
1002
{
1000
ngdw:Dataset=?
1002
}
1001
TOPOCAD_8
1002
{
1000
topo:datum=39478.670023
1000
topo:filenaam=U:\OW\Kadaster-0stand-mrt\2008\jan-2008_kl-0092_vst-ahm\200801\0092\02\0092_02.sfn
1002
}
  0
LWPOLYLINE
  5
2959
330
29D7
100
AcDbEntity
  8
T02_F
  6
RASTER
 62
     7
 48
0.1
370
     0
100
AcDbPolyline
 90
        2
 70
     0
 43
0.0
 10
205079.49548
 20
438895.271205
 10
205073.947
 20
438799.694
1001
TOPOCAD_8_LKI
1002
{
1000
lki:bewerking=1
1000
lki:bron=F6
1000
lki:groep=5
1000
lki:klasse=T02
1000
lki:mutatiedatum=0.000000
1000
lki:opnamedatum=34381.000000
1000
lki:precisie=3
1000
lki:status=1
1000
lki:versie=8.0
1000
lki:wijzin=2
1000
lki:zichtbaarheid=0
1002
}
1001
TOPOCAD_8_GBKN
1002
{
1000
gbkn:Layer=T02_F
1002
}
1001
TOPOCAD_8_NGDW
1002
{
1000
ngdw:Dataset=?
1002
}
1001
TOPOCAD_8
1002
{
1000
topo:datum=39478.670023
1000
topo:filenaam=U:\OW\Kadaster-0stand-mrt\2008\jan-2008_kl-0092_vst-ahm\200801\0092\02\0092_02.sfn
1002
}
  0
LWPOLYLINE
  5
295A
330
29D7
100
AcDbEntity
  8
T04_F
  6
HAAG
 62
     7
 48
0.1
370
     0
100
AcDbPolyline
 90
        3
 70
     0
 43
0.0
 10
205186.179
 20
438895.066
 10
205090.77
 20
438881.833
 10
205090.427
 20
438869.816
1001
TOPOCAD_8_LKI
1002
{
1000
lki:bewerking=1
1000
lki:bron=F6
1000
lki:groep=5
1000
lki:klasse=T04
1000
lki:mutatiedatum=0.000000
1000
lki:opnamedatum=34381.000000
1000
lki:precisie=3
1000
lki:status=1
1000
lki:versie=8.0
1000
lki:wijzin=2
1000
lki:zichtbaarheid=0
1002
}
1001
TOPOCAD_8_GBKN
1002
{
1000
gbkn:Layer=T04_F
1002
}
1001
TOPOCAD_8_NGDW
1002
{
1000
ngdw:Dataset=?
1002
}
1001
TOPOCAD_8
1002
{
1000
topo:datum=39478.670023
1000
topo:filenaam=U:\OW\Kadaster-0stand-mrt\2008\jan-2008_kl-0092_vst-ahm\200801\0092\02\0092_02.sfn
1002
}
  0
LWPOLYLINE
  5
295B
330
29D7
100
AcDbEntity
  8
T09_F
  6
Continuous
 62
     7
 48
0.1
370
     0
100
AcDbPolyline
 90
        5
 70
   128
 43
0.0
 10
205107.786
 20
438776.789
 10
205149.519
 20
438770.438
 10
205176.811
 20
438764.194
 10
205187.09
 20
438760.621
 10
205194.4477
 20
438757.503797
1001
TOPOCAD_8_LKI
1002
{
1000
lki:bewerking=1
1000
lki:bron=F6
1000
lki:groep=5
1000
lki:klasse=T09
1000
lki:mutatiedatum=0.000000
1000
lki:opnamedatum=34381.000000
1000
lki:precisie=3
1000
lki:status=1
1000
lki:versie=8.0
1000
lki:wijzin=2
1000
lki:zichtbaarheid=0
1002
}
1001
TOPOCAD_8_GBKN
1002
{
1000
gbkn:Layer=T09_F
1002
}
1001
TOPOCAD_8_NGDW
1002
{
1000
ngdw:Dataset=?
1002
}
1001
TOPOCAD_8
1002
{
1000
topo:datum=39478.670023
1000
topo:filenaam=U:\OW\Kadaster-0stand-mrt\2008\jan-2008_kl-0092_vst-ahm\200801\0092\02\0092_02.sfn
1002
}
  0
LWPOLYLINE
  5
295C
330
29D7
100
AcDbEntity
  8
T09_F
  6
Continuous
 62
     7
 48
0.1
370
     0
100
AcDbPolyline
 90
       11
 70
   128
 43
0.0
 10
205194.4477
 20
438755.066293
 10
205190.186
 20
438756.86
 10
205184.646
 20
438759.07
 10
205177.713
 20
438761.676
 10
205168.437
 20
438763.899
 10
205157.093
 20
438765.986
 10
205130.129
 20
438770.409
 10
205102.38
 20
438775.324
 10
205099.906
 20
438776.007
 10
205098.699
 20
438776.233
 10
205098.55
 20
438776.048
1001
TOPOCAD_8_LKI
1002
{
1000
lki:bewerking=1
1000
lki:bron=F6
1000
lki:groep=5
1000
lki:klasse=T09
1000
lki:mutatiedatum=0.000000
1000
lki:opnamedatum=34381.000000
1000
lki:precisie=3
1000
lki:status=1
1000
lki:versie=8.0
1000
lki:wijzin=2
1000
lki:zichtbaarheid=0
1002
}
1001
TOPOCAD_8_GBKN
1002
{
1000
gbkn:Layer=T09_F
1002
}
1001
TOPOCAD_8_NGDW
1002
{
1000
ngdw:Dataset=?
1002
}
1001
TOPOCAD_8
1002
{
1000
topo:datum=39478.670023
1000
topo:filenaam=U:\OW\Kadaster-0stand-mrt\2008\jan-2008_kl-0092_vst-ahm\200801\0092\02\0092_02.sfn
1002
}
  0
LWPOLYLINE
  5
295D
330
29D7
100
AcDbEntity
  8
T09_F
  6
Continuous
 62
     7
 48
0.1
370
     0
100
AcDbPolyline
 90
        2
 70
   128
 43
0.0
 10
205096.743
 20
438893.433
 10
205096.858897
 20
438895.271205
1001
TOPOCAD_8_LKI
1002
{
1000
lki:bewerking=1
1000
lki:bron=F6
1000
lki:groep=5
1000
lki:klasse=T09
1000
lki:mutatiedatum=0.000000
1000
lki:opnamedatum=34381.000000
1000
lki:precisie=3
1000
lki:status=1
1000
lki:versie=8.0
1000
lki:wijzin=2
1000
lki:zichtbaarheid=0
1002
}
1001
TOPOCAD_8_GBKN
1002
{
1000
gbkn:Layer=T09_F
1002
}
1001
TOPOCAD_8_NGDW
1002
{
1000
ngdw:Dataset=?
1002
}
1001
TOPOCAD_8
1002
{
1000
topo:datum=39478.670023
1000
topo:filenaam=U:\OW\Kadaster-0stand-mrt\2008\jan-2008_kl-0092_vst-ahm\200801\0092\02\0092_02.sfn
1002
}
  0
LWPOLYLINE
  5
295E
330
29D7
100
AcDbEntity
  8
T09_F
  6
Continuous
 62
     7
 48
0.1
370
     0
100
AcDbPolyline
 90
        9
 70
   128
 43
0.0
 10
205094.972514
 20
438895.271205
 10
205094.514
 20
438886.62
 10
205094.589
 20
438886.014
 10
205094.833
 20
438885.614
 10
205095.226
 20
438885.378
 10
205095.812
 20
438885.432
 10
205096.36
 20
438885.821
 10
205096.623
 20
438886.673
 10
205096.743
 20
438893.433
1001
TOPOCAD_8_LKI
1002
{
1000
lki:bewerking=1
1000
lki:bron=F6
1000
lki:groep=5
1000
lki:klasse=T09
1000
lki:mutatiedatum=0.000000
1000
lki:opnamedatum=34381.000000
1000
lki:precisie=3
1000
lki:status=1
1000
lki:versie=8.0
1000
lki:wijzin=2
1000
lki:zichtbaarheid=0
1002
}
1001
TOPOCAD_8_GBKN
1002
{
1000
gbkn:Layer=T09_F
1002
}
1001
TOPOCAD_8_NGDW
1002
{
1000
ngdw:Dataset=?
1002
}
1001
TOPOCAD_8
1002
{
1000
topo:datum=39478.670023
1000
topo:filenaam=U:\OW\Kadaster-0stand-mrt\2008\jan-2008_kl-0092_vst-ahm\200801\0092\02\0092_02.sfn
1002
}
  0
LWPOLYLINE
  5
295F
330
29D7
100
AcDbEntity
  8
T09_F
  6
Continuous
 62
     7
 48
0.1
370
     0
100
AcDbPolyline
 90
       19
 70
   128
 43
0.0
 10
205098.55
 20
438776.048
 10
205098.602
 20
438775.296
 10
205098.944
 20
438774.435
 10
205112.358
 20
438734.145
 10
205112.535
 20
438733.37
 10
205112.341
 20
438732.997
 10
205111.17
 20
438732.827
 10
205110.233
 20
438732.945
 10
205109.576
 20
438733.706
 10
205109.112
 20
438734.798
 10
205091.192
 20
438789.472
 10
205091.196
 20
438789.805
 10
205091.388
 20
438790.074
 10
205091.831
 20
438790.38
 10
205092.439
 20
438790.539
 10
205093.167
 20
438790.382
 10
205093.986
 20
438789.347
 10
205094.949
 20
438786.682
 10
205096.295
 20
438783.094
1001
TOPOCAD_8_LKI
1002
{
1000
lki:bewerking=1
1000
lki:bron=F6
1000
lki:groep=5
1000
lki:klasse=T09
1000
lki:mutatiedatum=0.000000
1000
lki:opnamedatum=34381.000000
1000
lki:precisie=3
1000
lki:status=1
1000
lki:versie=8.0
1000
lki:wijzin=2
1000
lki:zichtbaarheid=0
1002
}
1001
TOPOCAD_8_GBKN
1002
{
1000
gbkn:Layer=T09_F
1002
}
1001
TOPOCAD_8_NGDW
1002
{
1000
ngdw:Dataset=?
1002
}
1001
TOPOCAD_8
1002
{
1000
topo:datum=39478.670023
1000
topo:filenaam=U:\OW\Kadaster-0stand-mrt\2008\jan-2008_kl-0092_vst-ahm\200801\0092\02\0092_02.sfn
1002
}
  0
LWPOLYLINE
  5
2960
330
29D7
100
AcDbEntity
  8
B03_F
  6
Continuous
 62
     7
 48
0.1
370
     0
100
AcDbPolyline
 90
        5
 70
   128
 43
0.0
 10
205192.872
 20
438764.983
 10
205192.573
 20
438761.71
 10
205186.722
 20
438762.61
 10
205187.018
 20
438765.736
 10
205192.872
 20
438764.983
1001
TOPOCAD_8_LKI
1002
{
1000
lki:bewerking=1
1000
lki:bron=F6
1000
lki:groep=5
1000
lki:klasse=B03
1000
lki:mutatiedatum=0.000000
1000
lki:opnamedatum=34381.000000
1000
lki:precisie=3
1000
lki:status=1
1000
lki:versie=8.0
1000
lki:wijzin=2
1000
lki:zichtbaarheid=0
1002
}
1001
TOPOCAD_8_GBKN
1002
{
1000
gbkn:Layer=B03_F
1002
}
1001
TOPOCAD_8_NGDW
1002
{
1000
ngdw:Dataset=?
1002
}
1001
TOPOCAD_8
1002
{
1000
topo:datum=39478.670023
1000
topo:filenaam=U:\OW\Kadaster-0stand-mrt\2008\jan-2008_kl-0092_vst-ahm\200801\0092\02\0092_02.sfn
1002
}
  0
LWPOLYLINE
  5
2961
330
29D7
100
AcDbEntity
  8
B03_F
  6
Continuous
 62
     7
 48
0.1
370
     0
100
AcDbPolyline
 90
        5
 70
   128
 43
0.0
 10
205145.712
 20
438710.114
 10
205151.251
 20
438710.639
 10
205152.291
 20
438701.878
 10
205146.895
 20
438701.102
 10
205145.712
 20
438710.114
1001
TOPOCAD_8_LKI
1002
{
1000
lki:bewerking=1
1000
lki:bron=F6
1000
lki:groep=5
1000
lki:klasse=B03
1000
lki:mutatiedatum=0.000000
1000
lki:opnamedatum=34381.000000
1000
lki:precisie=3
1000
lki:status=1
1000
lki:versie=8.0
1000
lki:wijzin=2
1000
lki:zichtbaarheid=0
1002
}
1001
TOPOCAD_8_GBKN
1002
{
1000
gbkn:Layer=B03_F
1002
}
1001
TOPOCAD_8_NGDW
1002
{
1000
ngdw:Dataset=?
1002
}
1001
TOPOCAD_8
1002
{
1000
topo:datum=39478.670023
1000
topo:filenaam=U:\OW\Kadaster-0stand-mrt\2008\jan-2008_kl-0092_vst-ahm\200801\0092\02\0092_02.sfn
1002
}
  0
LWPOLYLINE
  5
2962
330
29D7
100
AcDbEntity
  8
B03_F
  6
Continuous
 62
     7
 48
0.1
370
     0
100
AcDbPolyline
 90
        4
 70
   128
 43
0.0
 10
205139.246
 20
438720.311
 10
205138.652
 20
438723.951
 10
205130.892
 20
438722.834
 10
205131.159
 20
438719.699
1001
TOPOCAD_8_LKI
1002
{
1000
lki:bewerking=1
1000
lki:bron=F6
1000
lki:groep=5
1000
lki:klasse=B03
1000
lki:mutatiedatum=0.000000
1000
lki:opnamedatum=34381.000000
1000
lki:precisie=3
1000
lki:status=1
1000
lki:versie=8.0
1000
lki:wijzin=2
1000
lki:zichtbaarheid=0
1002
}
1001
TOPOCAD_8_GBKN
1002
{
1000
gbkn:Layer=B03_F
1002
}
1001
TOPOCAD_8_NGDW
1002
{
1000
ngdw:Dataset=?
1002
}
1001
TOPOCAD_8
1002
{
1000
topo:datum=39478.670023
1000
topo:filenaam=U:\OW\Kadaster-0stand-mrt\2008\jan-2008_kl-0092_vst-ahm\200801\0092\02\0092_02.sfn
1002
}
  0
LWPOLYLINE
  5
2963
330
29D7
100
AcDbEntity
  8
B14_F
  6
Continuous
 62
     7
 48
0.1
370
     0
100
AcDbPolyline
 90
        3
 70
   128
 43
0.0
 10
205156.631
 20
438771.587
 10
205157.997
 20
438782.149
 10
205194.4477
 20
438776.804963
1001
TOPOCAD_8_LKI
1002
{
1000
lki:bewerking=1
1000
lki:bron=F6
1000
lki:groep=5
1000
lki:klasse=B14
1000
lki:mutatiedatum=0.000000
1000
lki:opnamedatum=34381.000000
1000
lki:precisie=3
1000
lki:status=1
1000
lki:versie=8.0
1000
lki:wijzin=2
1000
lki:zichtbaarheid=0
1002
}
1001
TOPOCAD_8_GBKN
1002
{
1000
gbkn:Layer=B14_F
1002
}
1001
TOPOCAD_8_NGDW
1002
{
1000
ngdw:Dataset=?
1002
}
1001
TOPOCAD_8
1002
{
1000
topo:datum=39478.670023
1000
topo:filenaam=U:\OW\Kadaster-0stand-mrt\2008\jan-2008_kl-0092_vst-ahm\200801\0092\02\0092_02.sfn
1002
}
  0
LWPOLYLINE
  5
2964
330
29D7
100
AcDbEntity
  8
B14_F
  6
Continuous
 62
     7
 48
0.1
370
     0
100
AcDbPolyline
 90
        3
 70
   128
 43
0.0
 10
205194.4477
 20
438775.090511
 10
205193.162
 20
438766.293
 10
205156.631
 20
438771.587
1001
TOPOCAD_8_LKI
1002
{
1000
lki:bewerking=1
1000
lki:bron=F6
1000
lki:groep=5
1000
lki:klasse=B14
1000
lki:mutatiedatum=0.000000
1000
lki:opnamedatum=34381.000000
1000
lki:precisie=3
1000
lki:status=1
1000
lki:versie=8.0
1000
lki:wijzin=2
1000
lki:zichtbaarheid=0
1002
}
1001
TOPOCAD_8_GBKN
1002
{
1000
gbkn:Layer=B14_F
1002
}
1001
TOPOCAD_8_NGDW
1002
{
1000
ngdw:Dataset=?
1002
}
1001
TOPOCAD_8
1002
{
1000
topo:datum=39478.670023
1000
topo:filenaam=U:\OW\Kadaster-0stand-mrt\2008\jan-2008_kl-0092_vst-ahm\200801\0092\02\0092_02.sfn
1002
}
  0
LWPOLYLINE
  5
2965
330
29D7
100
AcDbEntity
  8
B14_F
  6
Continuous
 62
     7
 48
0.1
370
     0
100
AcDbPolyline
 90
        5
 70
   128
 43
0.0
 10
205131.287
 20
438708.448
 10
205141.869
 20
438709.942
 10
205140.548
 20
438720.898
 10
205129.988
 20
438719.487
 10
205131.287
 20
438708.448
1001
TOPOCAD_8_LKI
1002
{
1000
lki:bewerking=1
1000
lki:bron=F6
1000
lki:groep=5
1000
lki:klasse=B14
1000
lki:mutatiedatum=0.000000
1000
lki:opnamedatum=34381.000000
1000
lki:precisie=3
1000
lki:status=1
1000
lki:versie=8.0
1000
lki:wijzin=2
1000
lki:zichtbaarheid=0
1002
}
1001
TOPOCAD_8_GBKN
1002
{
1000
gbkn:Layer=B14_F
1002
}
1001
TOPOCAD_8_NGDW
1002
{
1000
ngdw:Dataset=?
1002
}
1001
TOPOCAD_8
1002
{
1000
topo:datum=39478.670023
1000
topo:filenaam=U:\OW\Kadaster-0stand-mrt\2008\jan-2008_kl-0092_vst-ahm\200801\0092\02\0092_02.sfn
1002
}
  0
LWPOLYLINE
  5
2966
330
29D7
100
AcDbEntity
  8
B01_T
  6
Continuous
 62
     7
 48
0.1
370
     0
100
AcDbPolyline
 90
        9
 70
   128
 43
0.0
 10
205109.855
 20
438655.524
 10
205103.492
 20
438654.223
 10
205103.652
 20
438653.442
 10
205096.85
 20
438652.051
 10
205094.699
 20
438662.57
 10
205101.684
 20
438663.998
 10
205101.839
 20
438663.238
 10
205108.019
 20
438664.502
 10
205109.855
 20
438655.524
1001
TOPOCAD_8_LKI
1002
{
1000
lki:bewerking=1
1000
lki:bron=NAVER
1000
lki:groep=5
1000
lki:klasse=B01
1000
lki:mutatiedatum=0.000000
1000
lki:opnamedatum=34820.000000
1000
lki:precisie=1
1000
lki:status=1
1000
lki:versie=8.0
1000
lki:wijzin=1
1000
lki:zichtbaarheid=0
1002
}
1001
TOPOCAD_8_GBKN
1002
{
1000
gbkn:Layer=B01_T
1002
}
1001
TOPOCAD_8_NGDW
1002
{
1000
ngdw:Dataset=?
1002
}
1001
TOPOCAD_8
1002
{
1000
topo:datum=39478.670023
1000
topo:filenaam=U:\OW\Kadaster-0stand-mrt\2008\jan-2008_kl-0092_vst-ahm\200801\0092\02\0092_02.sfn
1002
}
  0
LWPOLYLINE
  5
2967
330
29D7
100
AcDbEntity
  8
B14_F
  6
Continuous
 62
     7
 48
0.1
370
     0
100
AcDbPolyline
 90
        5
 70
   128
 43
0.0
 10
205112.257
 20
438638.518
 10
205085.804
 20
438633.681
 10
205087.265
 20
438625.871
 10
205113.821
 20
438631.072
 10
205112.257
 20
438638.518
1001
TOPOCAD_8_LKI
1002
{
1000
lki:bewerking=1
1000
lki:bron=F6
1000
lki:groep=5
1000
lki:klasse=B14
1000
lki:mutatiedatum=0.000000
1000
lki:opnamedatum=34381.000000
1000
lki:precisie=3
1000
lki:status=1
1000
lki:versie=8.0
1000
lki:wijzin=2
1000
lki:zichtbaarheid=0
1002
}
1001
TOPOCAD_8_GBKN
1002
{
1000
gbkn:Layer=B14_F
1002
}
1001
TOPOCAD_8_NGDW
1002
{
1000
ngdw:Dataset=?
1002
}
1001
TOPOCAD_8
1002
{
1000
topo:datum=39478.670023
1000
topo:filenaam=U:\OW\Kadaster-0stand-mrt\2008\jan-2008_kl-0092_vst-ahm\200801\0092\02\0092_02.sfn
1002
}
  0
LWPOLYLINE
  5
2968
330
29D7
100
AcDbEntity
  8
B03_F
  6
Continuous
 62
     7
 48
0.1
370
     0
100
AcDbPolyline
 90
        5
 70
   128
 43
0.0
 10
205161.746
 20
438707.563
 10
205170.341
 20
438708.689
 10
205171.417
 20
438700.993
 10
205162.654
 20
438699.765
 10
205161.746
 20
438707.563
1001
TOPOCAD_8_LKI
1002
{
1000
lki:bewerking=1
1000
lki:bron=F6
1000
lki:groep=5
1000
lki:klasse=B03
1000
lki:mutatiedatum=0.000000
1000
lki:opnamedatum=34381.000000
1000
lki:precisie=3
1000
lki:status=1
1000
lki:versie=8.0
1000
lki:wijzin=2
1000
lki:zichtbaarheid=0
1002
}
1001
TOPOCAD_8_GBKN
1002
{
1000
gbkn:Layer=B03_F
1002
}
1001
TOPOCAD_8_NGDW
1002
{
1000
ngdw:Dataset=?
1002
}
1001
TOPOCAD_8
1002
{
1000
topo:datum=39478.670023
1000
topo:filenaam=U:\OW\Kadaster-0stand-mrt\2008\jan-2008_kl-0092_vst-ahm\200801\0092\02\0092_02.sfn
1002
}
  0
LWPOLYLINE
  5
2969
330
29D7
100
AcDbEntity
  8
T02_F
  6
RASTER
 62
     7
 48
0.1
370
     0
100
AcDbPolyline
 90
        2
 70
     0
 43
0.0
 10
205194.4477
 20
438879.502212
 10
205186.179
 20
438895.066
1001
TOPOCAD_8_LKI
1002
{
1000
lki:bewerking=1
1000
lki:bron=F6
1000
lki:groep=5
1000
lki:klasse=T02
1000
lki:mutatiedatum=0.000000
1000
lki:opnamedatum=34381.000000
1000
lki:precisie=3
1000
lki:status=1
1000
lki:versie=8.0
1000
lki:wijzin=2
1000
lki:zichtbaarheid=0
1002
}
1001
TOPOCAD_8_GBKN
1002
{
1000
gbkn:Layer=T02_F
1002
}
1001
TOPOCAD_8_NGDW
1002
{
1000
ngdw:Dataset=?
1002
}
1001
TOPOCAD_8
1002
{
1000
topo:datum=39478.670023
1000
topo:filenaam=U:\OW\Kadaster-0stand-mrt\2008\jan-2008_kl-0092_vst-ahm\200801\0092\02\0092_02.sfn
1002
}
  0
LWPOLYLINE
  5
296A
330
29D7
100
AcDbEntity
  8
B03_F
  6
Continuous
 62
     7
 48
0.1
370
     0
100
AcDbPolyline
 90
        5
 70
   128
 43
0.0
 10
205081.723
 20
438652.877
 10
205088.155
 20
438654.149
 10
205091.872
 20
438635.159
 10
205085.28
 20
438634.011
 10
205081.723
 20
438652.877
1001
TOPOCAD_8_LKI
1002
{
1000
lki:bewerking=1
1000
lki:bron=F6
1000
lki:groep=5
1000
lki:klasse=B03
1000
lki:mutatiedatum=0.000000
1000
lki:opnamedatum=34381.000000
1000
lki:precisie=3
1000
lki:status=1
1000
lki:versie=8.0
1000
lki:wijzin=2
1000
lki:zichtbaarheid=0
1002
}
1001
TOPOCAD_8_GBKN
1002
{
1000
gbkn:Layer=B03_F
1002
}
1001
TOPOCAD_8_NGDW
1002
{
1000
ngdw:Dataset=?
1002
}
1001
TOPOCAD_8
1002
{
1000
topo:datum=39478.670023
1000
topo:filenaam=U:\OW\Kadaster-0stand-mrt\2008\jan-2008_kl-0092_vst-ahm\200801\0092\02\0092_02.sfn
1002
}
  0
LWPOLYLINE
  5
296B
330
29D7
100
AcDbEntity
  8
V00_F
  6
Continuous
 62
     7
 48
0.1
370
     0
100
AcDbPolyline
 90
        2
 70
   128
 43
0.0
 10
205105.389
 20
438728.286
 10
205104.003
 20
438734.472
1001
TOPOCAD_8_LKI
1002
{
1000
lki:bewerking=1
1000
lki:bron=F6
1000
lki:groep=5
1000
lki:klasse=V00
1000
lki:mutatiedatum=0.000000
1000
lki:opnamedatum=34381.000000
1000
lki:precisie=3
1000
lki:status=1
1000
lki:versie=8.0
1000
lki:wijzin=2
1000
lki:zichtbaarheid=0
1002
}
1001
TOPOCAD_8_GBKN
1002
{
1000
gbkn:Layer=V00_F
1002
}
1001
TOPOCAD_8_NGDW
1002
{
1000
ngdw:Dataset=?
1002
}
1001
TOPOCAD_8
1002
{
1000
topo:datum=39478.670023
1000
topo:filenaam=U:\OW\Kadaster-0stand-mrt\2008\jan-2008_kl-0092_vst-ahm\200801\0092\02\0092_02.sfn
1002
}
  0
LWPOLYLINE
  5
296C
330
29D7
100
AcDbEntity
  8
V00_F
  6
Continuous
 62
     7
 48
0.1
370
     0
100
AcDbPolyline
 90
        3
 70
   128
 43
0.0
 10
205133.969
 20
438729.091
 10
205134.468
 20
438728.916
 10
205133.969
 20
438729.091
1001
TOPOCAD_8_LKI
1002
{
1000
lki:bewerking=1
1000
lki:bron=F6
1000
lki:groep=5
1000
lki:klasse=V00
1000
lki:mutatiedatum=0.000000
1000
lki:opnamedatum=34381.000000
1000
lki:precisie=3
1000
lki:status=1
1000
lki:versie=8.0
1000
lki:wijzin=2
1000
lki:zichtbaarheid=0
1002
}
1001
TOPOCAD_8_GBKN
1002
{
1000
gbkn:Layer=V00_F
1002
}
1001
TOPOCAD_8_NGDW
1002
{
1000
ngdw:Dataset=?
1002
}
1001
TOPOCAD_8
1002
{
1000
topo:datum=39478.670023
1000
topo:filenaam=U:\OW\Kadaster-0stand-mrt\2008\jan-2008_kl-0092_vst-ahm\200801\0092\02\0092_02.sfn
1002
}
  0
LWPOLYLINE
  5
296D
330
29D7
100
AcDbEntity
  8
V00_F
  6
Continuous
 62
     7
 48
0.1
370
     0
100
AcDbPolyline
 90
       20
 70
   128
 43
0.0
 10
205105.389
 20
438728.286
 10
205107.525
 20
438729.061
 10
205110.26
 20
438729.125
 10
205112.64
 20
438729.153
 10
205114.518
 20
438729.125
 10
205116.375
 20
438729.098
 10
205117.982
 20
438729.074
 10
205119.943
 20
438729.046
 10
205121.925
 20
438728.996
 10
205124.323
 20
438728.814
 10
205126.156
 20
438728.6
 10
205128.57
 20
438728.063
 10
205130.627
 20
438727.47
 10
205132.623
 20
438726.96
 10
205134.618
 20
438726.326
 10
205136.443
 20
438725.569
 10
205138.142
 20
438724.688
 10
205139.903
 20
438723.807
 10
205141.497
 20
438722.886
 10
205142.902
 20
438721.926
1001
TOPOCAD_8_LKI
1002
{
1000
lki:bewerking=1
1000
lki:bron=F6
1000
lki:groep=5
1000
lki:klasse=V00
1000
lki:mutatiedatum=0.000000
1000
lki:opnamedatum=34381.000000
1000
lki:precisie=3
1000
lki:status=1
1000
lki:versie=8.0
1000
lki:wijzin=2
1000
lki:zichtbaarheid=0
1002
}
1001
TOPOCAD_8_GBKN
1002
{
1000
gbkn:Layer=V00_F
1002
}
1001
TOPOCAD_8_NGDW
1002
{
1000
ngdw:Dataset=?
1002
}
1001
TOPOCAD_8
1002
{
1000
topo:datum=39478.670023
1000
topo:filenaam=U:\OW\Kadaster-0stand-mrt\2008\jan-2008_kl-0092_vst-ahm\200801\0092\02\0092_02.sfn
1002
}
  0
LWPOLYLINE
  5
296E
330
29D7
100
AcDbEntity
  8
V00_F
  6
Continuous
 62
     7
 48
0.1
370
     0
100
AcDbPolyline
 90
       22
 70
   128
 43
0.0
 10
205104.003
 20
438734.472
 10
205105.37
 20
438734.393
 10
205106.504
 20
438733.417
 10
205107.497
 20
438732.818
 10
205108.555
 20
438732.385
 10
205110.45
 20
438732.107
 10
205111.784
 20
438731.983
 10
205113.265
 20
438731.919
 10
205114.599
 20
438731.837
 10
205115.934
 20
438731.755
 10
205117.477
 20
438731.67
 10
205118.832
 20
438731.566
 10
205120.416
 20
438731.397
 10
205122.312
 20
438731.202
 10
205124.293
 20
438731.048
 10
205126.001
 20
438730.794
 10
205128.041
 20
438730.471
 10
205129.269
 20
438730.224
 10
205130.56
 20
438729.996
 10
205131.705
 20
438729.792
 10
205132.931
 20
438729.44
 10
205133.969
 20
438729.091
1001
TOPOCAD_8_LKI
1002
{
1000
lki:bewerking=1
1000
lki:bron=F6
1000
lki:groep=5
1000
lki:klasse=V00
1000
lki:mutatiedatum=0.000000
1000
lki:opnamedatum=34381.000000
1000
lki:precisie=3
1000
lki:status=1
1000
lki:versie=8.0
1000
lki:wijzin=2
1000
lki:zichtbaarheid=0
1002
}
1001
TOPOCAD_8_GBKN
1002
{
1000
gbkn:Layer=V00_F
1002
}
1001
TOPOCAD_8_NGDW
1002
{
1000
ngdw:Dataset=?
1002
}
1001
TOPOCAD_8
1002
{
1000
topo:datum=39478.670023
1000
topo:filenaam=U:\OW\Kadaster-0stand-mrt\2008\jan-2008_kl-0092_vst-ahm\200801\0092\02\0092_02.sfn
1002
}
  0
LWPOLYLINE
  5
296F
330
29D7
100
AcDbEntity
  8
V00_F
  6
Continuous
 62
     7
 48
0.1
370
     0
100
AcDbPolyline
 90
       12
 70
   128
 43
0.0
 10
205090.507
 20
438765.48
 10
205091.13
 20
438764.046
 10
205098.899
 20
438741.249
 10
205100.529
 20
438734.672
 10
205102.48
 20
438726.797
 10
205105.765
 20
438711.172
 10
205107.077
 20
438704.74
 10
205111.793
 20
438684.323
 10
205116.364
 20
438661.883
 10
205120.585
 20
438642.665
 10
205123.51
 20
438628.408
 10
205126.10171
 20
438616.318464
1001
TOPOCAD_8_LKI
1002
{
1000
lki:bewerking=1
1000
lki:bron=F6
1000
lki:groep=5
1000
lki:klasse=V00
1000
lki:mutatiedatum=0.000000
1000
lki:opnamedatum=34381.000000
1000
lki:precisie=3
1000
lki:status=1
1000
lki:versie=8.0
1000
lki:wijzin=2
1000
lki:zichtbaarheid=0
1002
}
1001
TOPOCAD_8_GBKN
1002
{
1000
gbkn:Layer=V00_F
1002
}
1001
TOPOCAD_8_NGDW
1002
{
1000
ngdw:Dataset=?
1002
}
1001
TOPOCAD_8
1002
{
1000
topo:datum=39478.670023
1000
topo:filenaam=U:\OW\Kadaster-0stand-mrt\2008\jan-2008_kl-0092_vst-ahm\200801\0092\02\0092_02.sfn
1002
}
  0
LWPOLYLINE
  5
2970
330
29D7
100
AcDbEntity
  8
B14_F
  6
Continuous
 62
     7
 48
0.1
370
     0
100
AcDbPolyline
 90
        5
 70
   128
 43
0.0
 10
205169.34
 20
438787.138
 10
205158.783
 20
438788.774
 10
205164.454
 20
438828.305
 10
205175.033
 20
438826.647
 10
205169.34
 20
438787.138
1001
TOPOCAD_8_LKI
1002
{
1000
lki:bewerking=1
1000
lki:bron=F6
1000
lki:groep=5
1000
lki:klasse=B14
1000
lki:mutatiedatum=0.000000
1000
lki:opnamedatum=34381.000000
1000
lki:precisie=3
1000
lki:status=1
1000
lki:versie=8.0
1000
lki:wijzin=2
1000
lki:zichtbaarheid=0
1002
}
1001
TOPOCAD_8_GBKN
1002
{
1000
gbkn:Layer=B14_F
1002
}
1001
TOPOCAD_8_NGDW
1002
{
1000
ngdw:Dataset=?
1002
}
1001
TOPOCAD_8
1002
{
1000
topo:datum=39478.670023
1000
topo:filenaam=U:\OW\Kadaster-0stand-mrt\2008\jan-2008_kl-0092_vst-ahm\200801\0092\02\0092_02.sfn
1002
}
  0
LWPOLYLINE
  5
2971
330
29D7
100
AcDbEntity
  8
V00_F
  6
Continuous
 62
     7
 48
0.1
370
     0
100
AcDbPolyline
 90
        6
 70
   128
 43
0.0
 10
205129.738588
 20
438616.318464
 10
205127.315
 20
438628.172
 10
205125.851
 20
438634.617
 10
205120.129
 20
438663.85
 10
205113.12
 20
438693.665
 10
205105.389
 20
438728.286
1001
TOPOCAD_8_LKI
1002
{
1000
lki:bewerking=1
1000
lki:bron=F6
1000
lki:groep=5
1000
lki:klasse=V00
1000
lki:mutatiedatum=0.000000
1000
lki:opnamedatum=34381.000000
1000
lki:precisie=3
1000
lki:status=1
1000
lki:versie=8.0
1000
lki:wijzin=2
1000
lki:zichtbaarheid=0
1002
}
1001
TOPOCAD_8_GBKN
1002
{
1000
gbkn:Layer=V00_F
1002
}
1001
TOPOCAD_8_NGDW
1002
{
1000
ngdw:Dataset=?
1002
}
1001
TOPOCAD_8
1002
{
1000
topo:datum=39478.670023
1000
topo:filenaam=U:\OW\Kadaster-0stand-mrt\2008\jan-2008_kl-0092_vst-ahm\200801\0092\02\0092_02.sfn
1002
}
  0
LWPOLYLINE
  5
2972
330
29D7
100
AcDbEntity
  8
B14_F
  6
Continuous
 62
     7
 48
0.1
370
     0
100
AcDbPolyline
 90
        2
 70
   128
 43
0.0
 10
205032.634
 20
438748.638
 10
205000.0
 20
438738.19
1001
TOPOCAD_8_LKI
1002
{
1000
lki:bewerking=1
1000
lki:bron=F6
1000
lki:groep=5
1000
lki:klasse=B14
1000
lki:mutatiedatum=0.000000
1000
lki:opnamedatum=34381.000000
1000
lki:precisie=3
1000
lki:status=1
1000
lki:versie=8.0
1000
lki:wijzin=2
1000
lki:zichtbaarheid=0
1002
}
1001
TOPOCAD_8_GBKN
1002
{
1000
gbkn:Layer=B14_F
1002
}
1001
TOPOCAD_8_NGDW
1002
{
1000
ngdw:Dataset=?
1002
}
1001
TOPOCAD_8
1002
{
1000
topo:datum=39478.670023
1000
topo:filenaam=U:\OW\Kadaster-0stand-mrt\2008\jan-2008_kl-0092_vst-ahm\200801\0092\02\0092_02.sfn
1002
}
  0
LWPOLYLINE
  5
2973
330
29D7
100
AcDbEntity
  8
B14_F
  6
Continuous
 62
     7
 48
0.1
370
     0
100
AcDbPolyline
 90
        3
 70
   128
 43
0.0
 10
205000.0
 20
438753.639
 10
205027.894
 20
438762.738
 10
205032.634
 20
438748.638
1001
TOPOCAD_8_LKI
1002
{
1000
lki:bewerking=1
1000
lki:bron=F6
1000
lki:groep=5
1000
lki:klasse=B14
1000
lki:mutatiedatum=0.000000
1000
lki:opnamedatum=34381.000000
1000
lki:precisie=3
1000
lki:status=1
1000
lki:versie=8.0
1000
lki:wijzin=2
1000
lki:zichtbaarheid=0
1002
}
1001
TOPOCAD_8_GBKN
1002
{
1000
gbkn:Layer=B14_F
1002
}
1001
TOPOCAD_8_NGDW
1002
{
1000
ngdw:Dataset=?
1002
}
1001
TOPOCAD_8
1002
{
1000
topo:datum=39478.670023
1000
topo:filenaam=U:\OW\Kadaster-0stand-mrt\2008\jan-2008_kl-0092_vst-ahm\200801\0092\02\0092_02.sfn
1002
}
  0
LWPOLYLINE
  5
2974
330
29D7
100
AcDbEntity
  8
V00_F
  6
Continuous
 62
     7
 48
0.1
370
     0
100
AcDbPolyline
 90
        5
 70
   128
 43
0.0
 10
205104.003
 20
438734.472
 10
205101.379
 20
438746.185
 10
205095.874
 20
438760.516
 10
205087.962
 20
438785.237
 10
205087.555
 20
438787.064
1001
TOPOCAD_8_LKI
1002
{
1000
lki:bewerking=1
1000
lki:bron=F6
1000
lki:groep=5
1000
lki:klasse=V00
1000
lki:mutatiedatum=0.000000
1000
lki:opnamedatum=34381.000000
1000
lki:precisie=3
1000
lki:status=1
1000
lki:versie=8.0
1000
lki:wijzin=2
1000
lki:zichtbaarheid=0
1002
}
1001
TOPOCAD_8_GBKN
1002
{
1000
gbkn:Layer=V00_F
1002
}
1001
TOPOCAD_8_NGDW
1002
{
1000
ngdw:Dataset=?
1002
}
1001
TOPOCAD_8
1002
{
1000
topo:datum=39478.670023
1000
topo:filenaam=U:\OW\Kadaster-0stand-mrt\2008\jan-2008_kl-0092_vst-ahm\200801\0092\02\0092_02.sfn
1002
}
  0
LWPOLYLINE
  5
2975
330
29D7
100
AcDbEntity
  8
V00_F
  6
Continuous
 62
     7
 48
0.1
370
     0
100
AcDbPolyline
 90
        6
 70
   128
 43
0.0
 10
205085.454
 20
438803.749
 10
205085.457
 20
438806.037
 10
205085.508
 20
438809.135
 10
205085.874
 20
438823.609
 10
205087.223
 20
438842.973
 10
205090.106136
 20
438895.271205
1001
TOPOCAD_8_LKI
1002
{
1000
lki:bewerking=1
1000
lki:bron=F6
1000
lki:groep=5
1000
lki:klasse=V00
1000
lki:mutatiedatum=0.000000
1000
lki:opnamedatum=34381.000000
1000
lki:precisie=3
1000
lki:status=1
1000
lki:versie=8.0
1000
lki:wijzin=2
1000
lki:zichtbaarheid=0
1002
}
1001
TOPOCAD_8_GBKN
1002
{
1000
gbkn:Layer=V00_F
1002
}
1001
TOPOCAD_8_NGDW
1002
{
1000
ngdw:Dataset=?
1002
}
1001
TOPOCAD_8
1002
{
1000
topo:datum=39478.670023
1000
topo:filenaam=U:\OW\Kadaster-0stand-mrt\2008\jan-2008_kl-0092_vst-ahm\200801\0092\02\0092_02.sfn
1002
}
  0
LWPOLYLINE
  5
2976
330
29D7
100
AcDbEntity
  8
B14_F
  6
Continuous
 62
     7
 48
0.1
370
     0
100
AcDbPolyline
 90
        2
 70
   128
 43
0.0
 10
205001.818
 20
438732.769
 10
205006.115
 20
438719.18
1001
TOPOCAD_8_LKI
1002
{
1000
lki:bewerking=1
1000
lki:bron=F6
1000
lki:groep=5
1000
lki:klasse=B14
1000
lki:mutatiedatum=0.000000
1000
lki:opnamedatum=34381.000000
1000
lki:precisie=3
1000
lki:status=1
1000
lki:versie=8.0
1000
lki:wijzin=2
1000
lki:zichtbaarheid=0
1002
}
1001
TOPOCAD_8_GBKN
1002
{
1000
gbkn:Layer=B14_F
1002
}
1001
TOPOCAD_8_NGDW
1002
{
1000
ngdw:Dataset=?
1002
}
1001
TOPOCAD_8
1002
{
1000
topo:datum=39478.670023
1000
topo:filenaam=U:\OW\Kadaster-0stand-mrt\2008\jan-2008_kl-0092_vst-ahm\200801\0092\02\0092_02.sfn
1002
}
  0
LWPOLYLINE
  5
2977
330
29D7
100
AcDbEntity
  8
B14_F
  6
Continuous
 62
     7
 48
0.1
370
     0
100
AcDbPolyline
 90
        2
 70
   128
 43
0.0
 10
205006.115
 20
438719.18
 10
205040.379
 20
438730.298
1001
TOPOCAD_8_LKI
1002
{
1000
lki:bewerking=1
1000
lki:bron=F6
1000
lki:groep=5
1000
lki:klasse=B14
1000
lki:mutatiedatum=0.000000
1000
lki:opnamedatum=34381.000000
1000
lki:precisie=3
1000
lki:status=1
1000
lki:versie=8.0
1000
lki:wijzin=2
1000
lki:zichtbaarheid=0
1002
}
1001
TOPOCAD_8_GBKN
1002
{
1000
gbkn:Layer=B14_F
1002
}
1001
TOPOCAD_8_NGDW
1002
{
1000
ngdw:Dataset=?
1002
}
1001
TOPOCAD_8
1002
{
1000
topo:datum=39478.670023
1000
topo:filenaam=U:\OW\Kadaster-0stand-mrt\2008\jan-2008_kl-0092_vst-ahm\200801\0092\02\0092_02.sfn
1002
}
  0
LWPOLYLINE
  5
2978
330
29D7
100
AcDbEntity
  8
B14_F
  6
Continuous
 62
     7
 48
0.1
370
     0
100
AcDbPolyline
 90
        2
 70
   128
 43
0.0
 10
205002.152
 20
438732.875
 10
205006.449
 20
438719.286
1001
TOPOCAD_8_LKI
1002
{
1000
lki:bewerking=1
1000
lki:bron=
1000
lki:groep=5
1000
lki:klasse=B14
1000
lki:mutatiedatum=0.000000
1000
lki:opnamedatum=36307.000000
1000
lki:precisie=4
1000
lki:status=1
1000
lki:versie=8.0
1000
lki:wijzin=2
1000
lki:zichtbaarheid=0
1002
}
1001
TOPOCAD_8_GBKN
1002
{
1000
gbkn:Layer=B14_F
1002
}
1001
TOPOCAD_8_NGDW
1002
{
1000
ngdw:Dataset=?
1002
}
1001
TOPOCAD_8
1002
{
1000
topo:datum=39478.670023
1000
topo:filenaam=U:\OW\Kadaster-0stand-mrt\2008\jan-2008_kl-0092_vst-ahm\200801\0092\02\0092_02.sfn
1002
}
  0
LWPOLYLINE
  5
2979
330
29D7
100
AcDbEntity
  8
B14_F
  6
Continuous
 62
     7
 48
0.1
370
     0
100
AcDbPolyline
 90
        2
 70
   128
 43
0.0
 10
205041.094
 20
438724.978
 10
205044.909
 20
438712.917
1001
TOPOCAD_8_LKI
1002
{
1000
lki:bewerking=1
1000
lki:bron=
1000
lki:groep=5
1000
lki:klasse=B14
1000
lki:mutatiedatum=0.000000
1000
lki:opnamedatum=36307.000000
1000
lki:precisie=4
1000
lki:status=1
1000
lki:versie=8.0
1000
lki:wijzin=2
1000
lki:zichtbaarheid=0
1002
}
1001
TOPOCAD_8_GBKN
1002
{
1000
gbkn:Layer=B14_F
1002
}
1001
TOPOCAD_8_NGDW
1002
{
1000
ngdw:Dataset=?
1002
}
1001
TOPOCAD_8
1002
{
1000
topo:datum=39478.670023
1000
topo:filenaam=U:\OW\Kadaster-0stand-mrt\2008\jan-2008_kl-0092_vst-ahm\200801\0092\02\0092_02.sfn
1002
}
  0
LWPOLYLINE
  5
297A
330
29D7
100
AcDbEntity
  8
B14_F
  6
Continuous
 62
     7
 48
0.1
370
     0
100
AcDbPolyline
 90
        2
 70
   128
 43
0.0
 10
205041.094
 20
438724.978
 10
205044.061
 20
438725.942
1001
TOPOCAD_8_LKI
1002
{
1000
lki:bewerking=1
1000
lki:bron=
1000
lki:groep=5
1000
lki:klasse=B14
1000
lki:mutatiedatum=0.000000
1000
lki:opnamedatum=36307.000000
1000
lki:precisie=4
1000
lki:status=1
1000
lki:versie=8.0
1000
lki:wijzin=2
1000
lki:zichtbaarheid=0
1002
}
1001
TOPOCAD_8_GBKN
1002
{
1000
gbkn:Layer=B14_F
1002
}
1001
TOPOCAD_8_NGDW
1002
{
1000
ngdw:Dataset=?
1002
}
1001
TOPOCAD_8
1002
{
1000
topo:datum=39478.670023
1000
topo:filenaam=U:\OW\Kadaster-0stand-mrt\2008\jan-2008_kl-0092_vst-ahm\200801\0092\02\0092_02.sfn
1002
}
  0
LWPOLYLINE
  5
297B
330
29D7
100
AcDbEntity
  8
B14_F
  6
Continuous
 62
     7
 48
0.1
370
     0
100
AcDbPolyline
 90
        2
 70
   128
 43
0.0
 10
205044.908
 20
438712.917
 10
205074.017
 20
438722.362
1001
TOPOCAD_8_LKI
1002
{
1000
lki:bewerking=1
1000
lki:bron=
1000
lki:groep=5
1000
lki:klasse=B14
1000
lki:mutatiedatum=0.000000
1000
lki:opnamedatum=36307.000000
1000
lki:precisie=4
1000
lki:status=1
1000
lki:versie=8.0
1000
lki:wijzin=2
1000
lki:zichtbaarheid=0
1002
}
1001
TOPOCAD_8_GBKN
1002
{
1000
gbkn:Layer=B14_F
1002
}
1001
TOPOCAD_8_NGDW
1002
{
1000
ngdw:Dataset=?
1002
}
1001
TOPOCAD_8
1002
{
1000
topo:datum=39478.670023
1000
topo:filenaam=U:\OW\Kadaster-0stand-mrt\2008\jan-2008_kl-0092_vst-ahm\200801\0092\02\0092_02.sfn
1002
}
  0
LWPOLYLINE
  5
297C
330
29D7
100
AcDbEntity
  8
B14_F
  6
Continuous
 62
     7
 48
0.1
370
     0
100
AcDbPolyline
 90
        2
 70
   128
 43
0.0
 10
205042.47
 20
438730.975
 10
205044.062
 20
438725.942
1001
TOPOCAD_8_LKI
1002
{
1000
lki:bewerking=1
1000
lki:bron=
1000
lki:groep=5
1000
lki:klasse=B14
1000
lki:mutatiedatum=0.000000
1000
lki:opnamedatum=36307.000000
1000
lki:precisie=4
1000
lki:status=1
1000
lki:versie=8.0
1000
lki:wijzin=2
1000
lki:zichtbaarheid=0
1002
}
1001
TOPOCAD_8_GBKN
1002
{
1000
gbkn:Layer=B14_F
1002
}
1001
TOPOCAD_8_NGDW
1002
{
1000
ngdw:Dataset=?
1002
}
1001
TOPOCAD_8
1002
{
1000
topo:datum=39478.670023
1000
topo:filenaam=U:\OW\Kadaster-0stand-mrt\2008\jan-2008_kl-0092_vst-ahm\200801\0092\02\0092_02.sfn
1002
}
  0
LWPOLYLINE
  5
297D
330
29D7
100
AcDbEntity
  8
B14_F
  6
Continuous
 62
     7
 48
0.1
370
     0
100
AcDbPolyline
 90
        2
 70
   128
 43
0.0
 10
205046.583
 20
438726.761
 10
205070.199
 20
438734.431
1001
TOPOCAD_8_LKI
1002
{
1000
lki:bewerking=1
1000
lki:bron=
1000
lki:groep=5
1000
lki:klasse=B14
1000
lki:mutatiedatum=0.000000
1000
lki:opnamedatum=36307.000000
1000
lki:precisie=4
1000
lki:status=1
1000
lki:versie=8.0
1000
lki:wijzin=2
1000
lki:zichtbaarheid=0
1002
}
1001
TOPOCAD_8_GBKN
1002
{
1000
gbkn:Layer=B14_F
1002
}
1001
TOPOCAD_8_NGDW
1002
{
1000
ngdw:Dataset=?
1002
}
1001
TOPOCAD_8
1002
{
1000
topo:datum=39478.670023
1000
topo:filenaam=U:\OW\Kadaster-0stand-mrt\2008\jan-2008_kl-0092_vst-ahm\200801\0092\02\0092_02.sfn
1002
}
  0
LWPOLYLINE
  5
297E
330
29D7
100
AcDbEntity
  8
B14_F
  6
Continuous
 62
     7
 48
0.1
370
     0
100
AcDbPolyline
 90
        2
 70
   128
 43
0.0
 10
205044.992
 20
438731.794
 10
205046.583
 20
438726.761
1001
TOPOCAD_8_LKI
1002
{
1000
lki:bewerking=1
1000
lki:bron=
1000
lki:groep=5
1000
lki:klasse=B14
1000
lki:mutatiedatum=0.000000
1000
lki:opnamedatum=36307.000000
1000
lki:precisie=4
1000
lki:status=1
1000
lki:versie=8.0
1000
lki:wijzin=2
1000
lki:zichtbaarheid=0
1002
}
1001
TOPOCAD_8_GBKN
1002
{
1000
gbkn:Layer=B14_F
1002
}
1001
TOPOCAD_8_NGDW
1002
{
1000
ngdw:Dataset=?
1002
}
1001
TOPOCAD_8
1002
{
1000
topo:datum=39478.670023
1000
topo:filenaam=U:\OW\Kadaster-0stand-mrt\2008\jan-2008_kl-0092_vst-ahm\200801\0092\02\0092_02.sfn
1002
}
  0
LWPOLYLINE
  5
297F
330
29D7
100
AcDbEntity
  8
B14_F
  6
Continuous
 62
     7
 48
0.1
370
     0
100
AcDbPolyline
 90
        6
 70
   128
 43
0.0
 10
205044.992
 20
438731.794
 10
205077.968
 20
438742.494
 10
205072.265
 20
438759.296
 10
205069.257
 20
438758.253
 10
205070.177
 20
438754.984
 10
205058.882
 20
438751.25
1001
TOPOCAD_8_LKI
1002
{
1000
lki:bewerking=1
1000
lki:bron=F6
1000
lki:groep=5
1000
lki:klasse=B14
1000
lki:mutatiedatum=0.000000
1000
lki:opnamedatum=34381.000000
1000
lki:precisie=3
1000
lki:status=1
1000
lki:versie=8.0
1000
lki:wijzin=2
1000
lki:zichtbaarheid=0
1002
}
1001
TOPOCAD_8_GBKN
1002
{
1000
gbkn:Layer=B14_F
1002
}
1001
TOPOCAD_8_NGDW
1002
{
1000
ngdw:Dataset=?
1002
}
1001
TOPOCAD_8
1002
{
1000
topo:datum=39478.670023
1000
topo:filenaam=U:\OW\Kadaster-0stand-mrt\2008\jan-2008_kl-0092_vst-ahm\200801\0092\02\0092_02.sfn
1002
}
  0
LWPOLYLINE
  5
2980
330
29D7
100
AcDbEntity
  8
B14_F
  6
Continuous
 62
     7
 48
0.1
370
     0
100
AcDbPolyline
 90
        2
 70
   128
 43
0.0
 10
205040.379
 20
438730.298
 10
205042.47
 20
438730.974
1001
TOPOCAD_8_LKI
1002
{
1000
lki:bewerking=1
1000
lki:bron=F6
1000
lki:groep=5
1000
lki:klasse=B14
1000
lki:mutatiedatum=0.000000
1000
lki:opnamedatum=34381.000000
1000
lki:precisie=3
1000
lki:status=1
1000
lki:versie=8.0
1000
lki:wijzin=2
1000
lki:zichtbaarheid=0
1002
}
1001
TOPOCAD_8_GBKN
1002
{
1000
gbkn:Layer=B14_F
1002
}
1001
TOPOCAD_8_NGDW
1002
{
1000
ngdw:Dataset=?
1002
}
1001
TOPOCAD_8
1002
{
1000
topo:datum=39478.670023
1000
topo:filenaam=U:\OW\Kadaster-0stand-mrt\2008\jan-2008_kl-0092_vst-ahm\200801\0092\02\0092_02.sfn
1002
}
  0
LWPOLYLINE
  5
2981
330
29D7
100
AcDbEntity
  8
B14_F
  6
Continuous
 62
     7
 48
0.1
370
     0
100
AcDbPolyline
 90
        2
 70
   128
 43
0.0
 10
205070.199
 20
438734.431
 10
205074.017
 20
438722.362
1001
TOPOCAD_8_LKI
1002
{
1000
lki:bewerking=1
1000
lki:bron=
1000
lki:groep=5
1000
lki:klasse=B14
1000
lki:mutatiedatum=0.000000
1000
lki:opnamedatum=36307.000000
1000
lki:precisie=4
1000
lki:status=1
1000
lki:versie=8.0
1000
lki:wijzin=2
1000
lki:zichtbaarheid=0
1002
}
1001
TOPOCAD_8_GBKN
1002
{
1000
gbkn:Layer=B14_F
1002
}
1001
TOPOCAD_8_NGDW
1002
{
1000
ngdw:Dataset=?
1002
}
1001
TOPOCAD_8
1002
{
1000
topo:datum=39478.670023
1000
topo:filenaam=U:\OW\Kadaster-0stand-mrt\2008\jan-2008_kl-0092_vst-ahm\200801\0092\02\0092_02.sfn
1002
}
  0
LWPOLYLINE
  5
2982
330
29D7
100
AcDbEntity
  8
V00_T
  6
Continuous
 62
     7
 48
0.1
370
     0
100
AcDbPolyline
 90
        2
 70
   128
 43
0.0
 10
205113.038
 20
438694.034
 10
205116.723
 20
438692.538
1001
TOPOCAD_8_LKI
1002
{
1000
lki:bewerking=1
1000
lki:bron=BYH01
1000
lki:groep=5
1000
lki:klasse=V00
1000
lki:mutatiedatum=0.000000
1000
lki:opnamedatum=37377.000000
1000
lki:precisie=1
1000
lki:status=1
1000
lki:versie=8.0
1000
lki:wijzin=1
1000
lki:zichtbaarheid=0
1002
}
1001
TOPOCAD_8_GBKN
1002
{
1000
gbkn:Layer=V00_T
1002
}
1001
TOPOCAD_8_NGDW
1002
{
1000
ngdw:Dataset=?
1002
}
1001
TOPOCAD_8
1002
{
1000
topo:datum=39478.670023
1000
topo:filenaam=U:\OW\Kadaster-0stand-mrt\2008\jan-2008_kl-0092_vst-ahm\200801\0092\02\0092_02.sfn
1002
}
  0
LWPOLYLINE
  5
2983
330
29D7
100
AcDbEntity
  8
V00_T
  6
Continuous
 62
     7
 48
0.1
370
     0
100
AcDbPolyline
 90
        2
 70
   128
 43
0.0
 10
205115.844
 20
438688.633
 10
205114.521
 20
438687.706
1001
TOPOCAD_8_LKI
1002
{
1000
lki:bewerking=1
1000
lki:bron=BYH01
1000
lki:groep=5
1000
lki:klasse=V00
1000
lki:mutatiedatum=0.000000
1000
lki:opnamedatum=37377.000000
1000
lki:precisie=1
1000
lki:status=1
1000
lki:versie=8.0
1000
lki:wijzin=1
1000
lki:zichtbaarheid=0
1002
}
1001
TOPOCAD_8_GBKN
1002
{
1000
gbkn:Layer=V00_T
1002
}
1001
TOPOCAD_8_NGDW
1002
{
1000
ngdw:Dataset=?
1002
}
1001
TOPOCAD_8
1002
{
1000
topo:datum=39478.670023
1000
topo:filenaam=U:\OW\Kadaster-0stand-mrt\2008\jan-2008_kl-0092_vst-ahm\200801\0092\02\0092_02.sfn
1002
}
  0
LWPOLYLINE
  5
2984
330
29D7
100
AcDbEntity
  8
V00_T
  6
Continuous
 62
     7
 48
0.1
370
     0
100
AcDbPolyline
 90
        2
 70
   128
 43
0.0
 10
205120.278
 20
438688.34
 10
205115.844
 20
438688.633
1001
TOPOCAD_8_LKI
1002
{
1000
lki:bewerking=1
1000
lki:bron=BYH01
1000
lki:groep=5
1000
lki:klasse=V00
1000
lki:mutatiedatum=0.000000
1000
lki:opnamedatum=37377.000000
1000
lki:precisie=1
1000
lki:status=1
1000
lki:versie=8.0
1000
lki:wijzin=1
1000
lki:zichtbaarheid=0
1002
}
1001
TOPOCAD_8_GBKN
1002
{
1000
gbkn:Layer=V00_T
1002
}
1001
TOPOCAD_8_NGDW
1002
{
1000
ngdw:Dataset=?
1002
}
1001
TOPOCAD_8
1002
{
1000
topo:datum=39478.670023
1000
topo:filenaam=U:\OW\Kadaster-0stand-mrt\2008\jan-2008_kl-0092_vst-ahm\200801\0092\02\0092_02.sfn
1002
}
  0
LWPOLYLINE
  5
2985
330
29D7
100
AcDbEntity
  8
V00_T
  6
Continuous
 62
     7
 48
0.1
370
     0
100
AcDbPolyline
 90
        2
 70
   128
 43
0.0
 10
205116.723
 20
438692.538
 10
205119.409
 20
438692.039
1001
TOPOCAD_8_LKI
1002
{
1000
lki:bewerking=1
1000
lki:bron=BYH01
1000
lki:groep=5
1000
lki:klasse=V00
1000
lki:mutatiedatum=0.000000
1000
lki:opnamedatum=37377.000000
1000
lki:precisie=1
1000
lki:status=1
1000
lki:versie=8.0
1000
lki:wijzin=1
1000
lki:zichtbaarheid=0
1002
}
1001
TOPOCAD_8_GBKN
1002
{
1000
gbkn:Layer=V00_T
1002
}
1001
TOPOCAD_8_NGDW
1002
{
1000
ngdw:Dataset=?
1002
}
1001
TOPOCAD_8
1002
{
1000
topo:datum=39478.670023
1000
topo:filenaam=U:\OW\Kadaster-0stand-mrt\2008\jan-2008_kl-0092_vst-ahm\200801\0092\02\0092_02.sfn
1002
}
  0
LWPOLYLINE
  5
2986
330
29D7
100
AcDbEntity
  8
V00_F
  6
Continuous
 62
     7
 48
0.1
370
     0
100
AcDbPolyline
 90
        7
 70
   128
 43
0.0
 10
205086.298502
 20
438895.271205
 10
205085.545
 20
438885.654
 10
205081.51
 20
438824.442
 10
205081.301
 20
438801.564
 10
205082.049
 20
438793.356
 10
205084.345
 20
438784.059
 10
205085.51
 20
438780.096
1001
TOPOCAD_8_LKI
1002
{
1000
lki:bewerking=1
1000
lki:bron=F6
1000
lki:groep=5
1000
lki:klasse=V00
1000
lki:mutatiedatum=0.000000
1000
lki:opnamedatum=34381.000000
1000
lki:precisie=3
1000
lki:status=1
1000
lki:versie=8.0
1000
lki:wijzin=2
1000
lki:zichtbaarheid=0
1002
}
1001
TOPOCAD_8_GBKN
1002
{
1000
gbkn:Layer=V00_F
1002
}
1001
TOPOCAD_8_NGDW
1002
{
1000
ngdw:Dataset=?
1002
}
1001
TOPOCAD_8
1002
{
1000
topo:datum=39478.670023
1000
topo:filenaam=U:\OW\Kadaster-0stand-mrt\2008\jan-2008_kl-0092_vst-ahm\200801\0092\02\0092_02.sfn
1002
}
  0
LWPOLYLINE
  5
2987
330
29D7
100
AcDbEntity
  8
V00_T
  6
Continuous
 62
     7
 48
0.1
370
     0
100
AcDbPolyline
 90
        2
 70
   128
 43
0.0
 10
205085.634
 20
438814.113
 10
205081.417
 20
438814.22
1001
TOPOCAD_8_LKI
1002
{
1000
lki:bewerking=1
1000
lki:bron=BYH04
1000
lki:groep=5
1000
lki:klasse=V00
1000
lki:mutatiedatum=0.000000
1000
lki:opnamedatum=38169.000000
1000
lki:precisie=3
1000
lki:status=1
1000
lki:versie=8.0
1000
lki:wijzin=1
1000
lki:zichtbaarheid=0
1002
}
1001
TOPOCAD_8_GBKN
1002
{
1000
gbkn:Layer=V00_T
1002
}
1001
TOPOCAD_8_NGDW
1002
{
1000
ngdw:Dataset=?
1002
}
1001
TOPOCAD_8
1002
{
1000
topo:datum=39478.670023
1000
topo:filenaam=U:\OW\Kadaster-0stand-mrt\2008\jan-2008_kl-0092_vst-ahm\200801\0092\02\0092_02.sfn
1002
}
  0
LWPOLYLINE
  5
2988
330
29D7
100
AcDbEntity
  8
V00_T
  6
Continuous
 62
     7
 48
0.1
370
     0
100
AcDbPolyline
 90
        2
 70
   128
 43
0.0
 10
205085.76
 20
438819.114
 10
205081.462
 20
438819.223
1001
TOPOCAD_8_LKI
1002
{
1000
lki:bewerking=1
1000
lki:bron=BYH04
1000
lki:groep=5
1000
lki:klasse=V00
1000
lki:mutatiedatum=0.000000
1000
lki:opnamedatum=38169.000000
1000
lki:precisie=3
1000
lki:status=1
1000
lki:versie=8.0
1000
lki:wijzin=1
1000
lki:zichtbaarheid=0
1002
}
1001
TOPOCAD_8_GBKN
1002
{
1000
gbkn:Layer=V00_T
1002
}
1001
TOPOCAD_8_NGDW
1002
{
1000
ngdw:Dataset=?
1002
}
1001
TOPOCAD_8
1002
{
1000
topo:datum=39478.670023
1000
topo:filenaam=U:\OW\Kadaster-0stand-mrt\2008\jan-2008_kl-0092_vst-ahm\200801\0092\02\0092_02.sfn
1002
}
  0
ENDSEC
  0
SECTION
  2
OBJECTS
  0
DICTIONARY
  5
29DC
330
0
100
AcDbDictionary
281
     1
  3
ACAD_COLOR
350
2A18
  3
ACAD_GROUP
350
2A05
  3
ACAD_LAYOUT
350
29E9
  3
ACAD_MATERIAL
350
29DE
  3
ACAD_MLEADERSTYLE
350
2A1B
  3
ACAD_MLINESTYLE
350
2A06
  3
ACAD_PLOTSETTINGS
350
2A07
  3
ACAD_PLOTSTYLENAME
350
29DB
  3
ACAD_SCALELIST
350
2A19
  3
ACAD_TABLESTYLE
350
2A1A
  3
ACAD_VISUALSTYLE
350
29FF
  3
AcadDim
350
2AEC
  3
ACDB_RECOMPOSE_DATA
350
2B8D
  3
AcDbVariableDictionary
350
2A51
  3
DWGPROPS
350
2B8E
  0
DICTIONARY
  5
29F2
330
29F1
100
AcDbDictionary
280
     1
281
     1
  3
ACAD_LAYERSTATES
360
29F3
  0
DICTIONARY
  5
2A18
102
{ACAD_REACTORS
330
29DC
102
}
330
29DC
100
AcDbDictionary
281
     1
  0
DICTIONARY
  5
2A05
102
{ACAD_REACTORS
330
29DC
102
}
330
29DC
100
AcDbDictionary
281
     1
  0
DICTIONARY
  5
29E9
102
{ACAD_REACTORS
330
29DC
102
}
330
29DC
100
AcDbDictionary
281
     1
  3
Layout1
350
29ED
  3
Model
350
29E8
  0
DICTIONARY
  5
29DE
102
{ACAD_REACTORS
330
29DC
102
}
330
29DC
100
AcDbDictionary
281
     1
  3
ByBlock
350
2A10
  3
ByLayer
350
2A08
  3
Global
350
29DD
  0
DICTIONARY
  5
2A1B
102
{ACAD_REACTORS
330
29DC
102
}
330
29DC
100
AcDbDictionary
281
     1
  3
Standard
350
2A7F
  0
DICTIONARY
  5
2A06
102
{ACAD_REACTORS
330
29DC
102
}
330
29DC
100
AcDbDictionary
281
     1
  3
Standard
350
2A1C
  0
DICTIONARY
  5
2A07
102
{ACAD_REACTORS
330
29DC
102
}
330
29DC
100
AcDbDictionary
281
     1
  0
ACDBDICTIONARYWDFLT
  5
29DB
102
{ACAD_REACTORS
330
29DC
102
}
330
29DC
100
AcDbDictionary
281
     1
  3
Normal
350
29DA
100
AcDbDictionaryWithDefault
340
29DA
  0
DICTIONARY
  5
2A19
102
{ACAD_REACTORS
330
29DC
102
}
330
29DC
100
AcDbDictionary
281
     1
  3
A0
350
2A20
  3
A1
350
2A21
  3
A2
350
2A22
  3
A3
350
2A23
  3
A4
350
2A24
  3
A5
350
2A25
  3
A6
350
2A26
  3
A7
350
2A27
  3
A8
350
2A28
  3
A9
350
2A29
  3
B0
350
2A2A
  3
B1
350
2A2B
  3
B2
350
2A2C
  3
B3
350
2A2D
  3
B4
350
2A2E
  3
B5
350
2A2F
  3
B6
350
2A30
  3
B7
350
2A31
  3
B8
350
2A32
  3
B9
350
2A33
  3
C0
350
2A34
  3
C1
350
2A35
  3
C2
350
2A36
  3
C3
350
2A37
  3
C4
350
2A38
  3
C5
350
2A39
  3
C6
350
2A3A
  3
C7
350
2A3B
  3
C8
350
2A3C
  3
C9
350
2A3D
  3
D0
350
2A3E
  3
D1
350
2A3F
  3
D2
350
2A40
  0
DICTIONARY
  5
2A1A
102
{ACAD_REACTORS
330
29DC
102
}
330
29DC
100
AcDbDictionary
281
     1
  3
Standard
350
2A1D
  0
DICTIONARY
  5
29FF
102
{ACAD_REACTORS
330
29DC
102
}
330
29DC
100
AcDbDictionary
281
     1
  3
2dWireframe
350
29FE
  3
3D Hidden
350
2A74
  3
3dWireframe
350
2A1F
  3
Basic
350
2A73
  3
Brighten
350
2A77
  3
ColorChange
350
2A7B
  3
Conceptual
350
2A75
  3
Dim
350
2A76
  3
EdgeColorOff
350
2A7E
  3
Facepattern
350
2A7A
  3
Flat
350
2A6F
  3
FlatWithEdges
350
2A70
  3
Gouraud
350
2A71
  3
GouraudWithEdges
350
2A72
  3
JitterOff
350
2A7C
  3
Linepattern
350
2A79
  3
OverhangOff
350
2A7D
  3
Realistic
350
2A1E
  3
Thicken
350
2A78
  0
XRECORD
  5
2AEC
102
{ACAD_REACTORS
330
29DC
102
}
330
29DC
100
AcDbXrecord
280
     1
 90
   990106
  3
 
 60
     0
 61
     0
 62
     2
 63
     2
 64
     0
 65
     0
 66
     0
 67
     3
 68
     1
 69
     0
 70
     0
 71
     0
 72
     0
 40
0.0
170
     0
  0
XRECORD
  5
2B8D
102
{ACAD_REACTORS
330
29DC
102
}
330
29DC
100
AcDbXrecord
280
     1
 90
        1
330
2A1D
  0
DICTIONARY
  5
2A51
102
{ACAD_REACTORS
330
29DC
102
}
330
29DC
100
AcDbDictionary
281
     1
  3
CANNOSCALE
350
2A54
  3
CMLEADERSTYLE
350
2A53
  3
CTABLESTYLE
350
2A52
  3
DIMASSOC
350
2A59
  3
HIDETEXT
350
2A57
  3
INDEXCTL
350
2A56
  3
SORTENTS
350
2A55
  3
XCLIPFRAME
350
2B8B
  0
XRECORD
  5
2B8E
102
{ACAD_REACTORS
330
29DC
102
}
330
29DC
100
AcDbXrecord
280
     1
  1
DWGPROPS COOKIE
  2

  3

  4
saskia
  6

  7

  8
saskia
  9

300
=
301
=
302
=
303
=
304
=
305
=
306
=
307
=
308
=
309
=
 40
0.001279
 41
2454144.819691
 42
2454144.820354
  1

 90
        0
  0
DICTIONARY
  5
29F3
102
{ACAD_REACTORS
330
29F2
102
}
330
29F2
100
AcDbDictionary
281
     1
  0
LAYOUT
  5
29ED
102
{ACAD_XDICTIONARY
360
29EE
102
}
102
{ACAD_REACTORS
330
29E9
102
}
330
29E9
100
AcDbPlotSettings
  1

  2
none_device
  4
Letter_(8.50_x_11.00_Inches)
  6

 40
6.35
 41
6.35
 42
6.350006
 43
6.350006
 44
215.899994
 45
279.399994
 46
0.0
 47
0.0
 48
0.0
 49
0.0
140
0.0
141
0.0
142
1.0
143
1.0
 70
   688
 72
     0
 73
     1
 74
     5
  7

 75
    16
147
1.0
148
0.0
149
0.0
100
AcDbLayout
  1
Layout1
 70
     1
 71
     1
 10
-0.25
 20
-0.25
 11
10.75
 21
8.25
 12
0.0
 22
0.0
 32
0.0
 14
1.049744
 24
0.799667
 34
-0.001526
 15
9.450623
 25
7.200577
 35
0.0
146
0.0
 13
0.0
 23
0.0
 33
0.0
 16
1.0
 26
0.0
 36
0.0
 17
0.0
 27
1.0
 37
0.0
 76
     0
330
29EA
1001
ACAD_PSEXT
1000
None
1000
None
1000
Not applicable
1000
The layout will not be plotted unless a new plotter configuration name is selected.
1070
     0
  0
LAYOUT
  5
29E8
102
{ACAD_XDICTIONARY
360
2B8F
102
}
102
{ACAD_REACTORS
330
29E9
102
}
330
29E9
100
AcDbPlotSettings
  1

  2
none_device
  4
ANSI_A_(8.50_x_11.00_Inches)
  6

 40
6.35
 41
19.049999
 42
6.350006
 43
19.049988
 44
215.899994
 45
279.399994
 46
0.0
 47
0.0
 48
0.0
 49
0.0
140
0.0
141
0.0
142
1.0
143
2.584895
 70
 11952
 72
     0
 73
     1
 74
     0
  7

 75
     0
147
0.386863
148
0.0
149
0.0
100
AcDbLayout
  1
Model
 70
     1
 71
     0
 10
0.0
 20
0.0
 11
12.0
 21
9.0
 12
0.0
 22
0.0
 32
0.0
 14
0.0
 24
0.0
 34
0.0
 15
0.0
 25
0.0
 35
0.0
146
0.0
 13
0.0
 23
0.0
 33
0.0
 16
1.0
 26
0.0
 36
0.0
 17
0.0
 27
1.0
 37
0.0
 76
     0
330
29D7
  0
MATERIAL
  5
2A10
102
{ACAD_XDICTIONARY
360
2A11
102
}
102
{ACAD_REACTORS
330
29DE
102
}
330
29DE
100
AcDbMaterial
  1
ByBlock
 72
     0
 43
0.020833
 43
0.0
 43
0.0
 43
0.0
 43
0.0
 43
0.020833
 43
0.0
 43
0.0
 43
0.0
 43
0.0
 43
1.0
 43
0.0
 43
0.0
 43
0.0
 43
0.0
 43
1.0
 77
     0
 47
0.020833
 47
0.0
 47
0.0
 47
0.0
 47
0.0
 47
0.020833
 47
0.0
 47
0.0
 47
0.0
 47
0.0
 47
1.0
 47
0.0
 47
0.0
 47
0.0
 47
0.0
 47
1.0
171
     0
 49
0.020833
 49
0.0
 49
0.0
 49
0.0
 49
0.0
 49
0.020833
 49
0.0
 49
0.0
 49
0.0
 49
0.0
 49
1.0
 49
0.0
 49
0.0
 49
0.0
 49
0.0
 49
1.0
175
     0
142
0.020833
142
0.0
142
0.0
142
0.0
142
0.0
142
0.020833
142
0.0
142
0.0
142
0.0
142
0.0
142
1.0
142
0.0
142
0.0
142
0.0
142
0.0
142
1.0
179
     0
144
0.020833
144
0.0
144
0.0
144
0.0
144
0.0
144
0.020833
144
0.0
144
0.0
144
0.0
144
0.0
144
1.0
144
0.0
144
0.0
144
0.0
144
0.0
144
1.0
147
0.020833
147
0.0
147
0.0
147
0.0
147
0.0
147
0.020833
147
0.0
147
0.0
147
0.0
147
0.0
147
1.0
147
0.0
147
0.0
147
0.0
147
0.0
147
1.0
  0
MATERIAL
  5
2A08
102
{ACAD_XDICTIONARY
360
2A09
102
}
102
{ACAD_REACTORS
330
29DE
102
}
330
29DE
100
AcDbMaterial
  1
ByLayer
 72
     0
 43
0.020833
 43
0.0
 43
0.0
 43
0.0
 43
0.0
 43
0.020833
 43
0.0
 43
0.0
 43
0.0
 43
0.0
 43
1.0
 43
0.0
 43
0.0
 43
0.0
 43
0.0
 43
1.0
 77
     0
 47
0.020833
 47
0.0
 47
0.0
 47
0.0
 47
0.0
 47
0.020833
 47
0.0
 47
0.0
 47
0.0
 47
0.0
 47
1.0
 47
0.0
 47
0.0
 47
0.0
 47
0.0
 47
1.0
171
     0
 49
0.020833
 49
0.0
 49
0.0
 49
0.0
 49
0.0
 49
0.020833
 49
0.0
 49
0.0
 49
0.0
 49
0.0
 49
1.0
 49
0.0
 49
0.0
 49
0.0
 49
0.0
 49
1.0
175
     0
142
0.020833
142
0.0
142
0.0
142
0.0
142
0.0
142
0.020833
142
0.0
142
0.0
142
0.0
142
0.0
142
1.0
142
0.0
142
0.0
142
0.0
142
0.0
142
1.0
179
     0
144
0.020833
144
0.0
144
0.0
144
0.0
144
0.0
144
0.020833
144
0.0
144
0.0
144
0.0
144
0.0
144
1.0
144
0.0
144
0.0
144
0.0
144
0.0
144
1.0
147
0.020833
147
0.0
147
0.0
147
0.0
147
0.0
147
0.020833
147
0.0
147
0.0
147
0.0
147
0.0
147
1.0
147
0.0
147
0.0
147
0.0
147
0.0
147
1.0
  0
MATERIAL
  5
29DD
102
{ACAD_XDICTIONARY
360
29DF
102
}
102
{ACAD_REACTORS
330
29DE
102
}
330
29DE
100
AcDbMaterial
  1
Global
 72
     0
 43
0.020833
 43
0.0
 43
0.0
 43
0.0
 43
0.0
 43
0.020833
 43
0.0
 43
0.0
 43
0.0
 43
0.0
 43
1.0
 43
0.0
 43
0.0
 43
0.0
 43
0.0
 43
1.0
 77
     0
 47
0.020833
 47
0.0
 47
0.0
 47
0.0
 47
0.0
 47
0.020833
 47
0.0
 47
0.0
 47
0.0
 47
0.0
 47
1.0
 47
0.0
 47
0.0
 47
0.0
 47
0.0
 47
1.0
171
     0
 49
0.020833
 49
0.0
 49
0.0
 49
0.0
 49
0.0
 49
0.020833
 49
0.0
 49
0.0
 49
0.0
 49
0.0
 49
1.0
 49
0.0
 49
0.0
 49
0.0
 49
0.0
 49
1.0
175
     0
142
0.020833
142
0.0
142
0.0
142
0.0
142
0.0
142
0.020833
142
0.0
142
0.0
142
0.0
142
0.0
142
1.0
142
0.0
142
0.0
142
0.0
142
0.0
142
1.0
179
     0
144
0.020833
144
0.0
144
0.0
144
0.0
144
0.0
144
0.020833
144
0.0
144
0.0
144
0.0
144
0.0
144
1.0
144
0.0
144
0.0
144
0.0
144
0.0
144
1.0
147
0.020833
147
0.0
147
0.0
147
0.0
147
0.0
147
0.020833
147
0.0
147
0.0
147
0.0
147
0.0
147
1.0
147
0.0
147
0.0
147
0.0
147
0.0
147
1.0
  0
MLEADERSTYLE
  5
2A7F
102
{ACAD_REACTORS
330
2A1B
102
}
330
2A1B
100
AcDbMLeaderStyle
170
     2
171
     1
172
     0
 90
        2
 40
0.0
 41
0.0
173
     1
 91
-1056964608
340
29F8
 92
       -2
290
     1
 42
0.09
291
     1
 43
0.36
  3
Standard
 44
0.18
300

342
29F5
174
     1
178
     6
175
     1
176
     0
 93
-1056964608
 45
0.18
292
     0
297
     0
 46
0.18
 94
-1056964608
 47
1.0
 49
1.0
140
1.0
293
     1
141
0.0
294
     1
177
     0
142
1.0
295
     0
296
     0
143
0.125
1001
ACAD_MLEADERVER
1070
     2
  0
MLINESTYLE
  5
2A1C
102
{ACAD_REACTORS
330
2A06
102
}
330
2A06
100
AcDbMlineStyle
  2
STANDARD
 70
     0
  3

 62
   256
 51
90.0
 52
90.0
 71
     2
 49
0.5
 62
   256
  6
BYLAYER
 49
-0.5
 62
   256
  6
BYLAYER
  0
ACDBPLACEHOLDER
  5
29DA
102
{ACAD_REACTORS
330
29DB
102
}
330
29DB
  0
SCALE
  5
2A20
102
{ACAD_REACTORS
330
2A19
102
}
330
2A19
100
AcDbScale
 70
     0
300
1:1
140
1.0
141
1.0
290
     1
  0
SCALE
  5
2A21
102
{ACAD_REACTORS
330
2A19
102
}
330
2A19
100
AcDbScale
 70
     0
300
1:2
140
1.0
141
2.0
290
     0
  0
SCALE
  5
2A22
102
{ACAD_REACTORS
330
2A19
102
}
330
2A19
100
AcDbScale
 70
     0
300
1:4
140
1.0
141
4.0
290
     0
  0
SCALE
  5
2A23
102
{ACAD_REACTORS
330
2A19
102
}
330
2A19
100
AcDbScale
 70
     0
300
1:5
140
1.0
141
5.0
290
     0
  0
SCALE
  5
2A24
102
{ACAD_REACTORS
330
2A19
102
}
330
2A19
100
AcDbScale
 70
     0
300
1:8
140
1.0
141
8.0
290
     0
  0
SCALE
  5
2A25
102
{ACAD_REACTORS
330
2A19
102
}
330
2A19
100
AcDbScale
 70
     0
300
1:10
140
1.0
141
10.0
290
     0
  0
SCALE
  5
2A26
102
{ACAD_REACTORS
330
2A19
102
}
330
2A19
100
AcDbScale
 70
     0
300
1:16
140
1.0
141
16.0
290
     0
  0
SCALE
  5
2A27
102
{ACAD_REACTORS
330
2A19
102
}
330
2A19
100
AcDbScale
 70
     0
300
1:20
140
1.0
141
20.0
290
     0
  0
SCALE
  5
2A28
102
{ACAD_REACTORS
330
2A19
102
}
330
2A19
100
AcDbScale
 70
     0
300
1:30
140
1.0
141
30.0
290
     0
  0
SCALE
  5
2A29
102
{ACAD_REACTORS
330
2A19
102
}
330
2A19
100
AcDbScale
 70
     0
300
1:40
140
1.0
141
40.0
290
     0
  0
SCALE
  5
2A2A
102
{ACAD_REACTORS
330
2A19
102
}
330
2A19
100
AcDbScale
 70
     0
300
1:50
140
1.0
141
50.0
290
     0
  0
SCALE
  5
2A2B
102
{ACAD_REACTORS
330
2A19
102
}
330
2A19
100
AcDbScale
 70
     0
300
1:100
140
1.0
141
100.0
290
     0
  0
SCALE
  5
2A2C
102
{ACAD_REACTORS
330
2A19
102
}
330
2A19
100
AcDbScale
 70
     0
300
2:1
140
2.0
141
1.0
290
     0
  0
SCALE
  5
2A2D
102
{ACAD_REACTORS
330
2A19
102
}
330
2A19
100
AcDbScale
 70
     0
300
4:1
140
4.0
141
1.0
290
     0
  0
SCALE
  5
2A2E
102
{ACAD_REACTORS
330
2A19
102
}
330
2A19
100
AcDbScale
 70
     0
300
8:1
140
8.0
141
1.0
290
     0
  0
SCALE
  5
2A2F
102
{ACAD_REACTORS
330
2A19
102
}
330
2A19
100
AcDbScale
 70
     0
300
10:1
140
10.0
141
1.0
290
     0
  0
SCALE
  5
2A30
102
{ACAD_REACTORS
330
2A19
102
}
330
2A19
100
AcDbScale
 70
     0
300
100:1
140
100.0
141
1.0
290
     0
  0
SCALE
  5
2A31
102
{ACAD_REACTORS
330
2A19
102
}
330
2A19
100
AcDbScale
 70
     0
300
1/128" = 1'-0"
140
0.007813
141
12.0
290
     0
  0
SCALE
  5
2A32
102
{ACAD_REACTORS
330
2A19
102
}
330
2A19
100
AcDbScale
 70
     0
300
1/64" = 1'-0"
140
0.015625
141
12.0
290
     0
  0
SCALE
  5
2A33
102
{ACAD_REACTORS
330
2A19
102
}
330
2A19
100
AcDbScale
 70
     0
300
1/32" = 1'-0"
140
0.03125
141
12.0
290
     0
  0
SCALE
  5
2A34
102
{ACAD_REACTORS
330
2A19
102
}
330
2A19
100
AcDbScale
 70
     0
300
1/16" = 1'-0"
140
0.0625
141
12.0
290
     0
  0
SCALE
  5
2A35
102
{ACAD_REACTORS
330
2A19
102
}
330
2A19
100
AcDbScale
 70
     0
300
3/32" = 1'-0"
140
0.09375
141
12.0
290
     0
  0
SCALE
  5
2A36
102
{ACAD_REACTORS
330
2A19
102
}
330
2A19
100
AcDbScale
 70
     0
300
1/8" = 1'-0"
140
0.125
141
12.0
290
     0
  0
SCALE
  5
2A37
102
{ACAD_REACTORS
330
2A19
102
}
330
2A19
100
AcDbScale
 70
     0
300
3/16" = 1'-0"
140
0.1875
141
12.0
290
     0
  0
SCALE
  5
2A38
102
{ACAD_REACTORS
330
2A19
102
}
330
2A19
100
AcDbScale
 70
     0
300
1/4" = 1'-0"
140
0.25
141
12.0
290
     0
  0
SCALE
  5
2A39
102
{ACAD_REACTORS
330
2A19
102
}
330
2A19
100
AcDbScale
 70
     0
300
3/8" = 1'-0"
140
0.375
141
12.0
290
     0
  0
SCALE
  5
2A3A
102
{ACAD_REACTORS
330
2A19
102
}
330
2A19
100
AcDbScale
 70
     0
300
1/2" = 1'-0"
140
0.5
141
12.0
290
     0
  0
SCALE
  5
2A3B
102
{ACAD_REACTORS
330
2A19
102
}
330
2A19
100
AcDbScale
 70
     0
300
3/4" = 1'-0"
140
0.75
141
12.0
290
     0
  0
SCALE
  5
2A3C
102
{ACAD_REACTORS
330
2A19
102
}
330
2A19
100
AcDbScale
 70
     0
300
1" = 1'-0"
140
1.0
141
12.0
290
     0
  0
SCALE
  5
2A3D
102
{ACAD_REACTORS
330
2A19
102
}
330
2A19
100
AcDbScale
 70
     0
300
1-1/2" = 1'-0"
140
1.5
141
12.0
290
     0
  0
SCALE
  5
2A3E
102
{ACAD_REACTORS
330
2A19
102
}
330
2A19
100
AcDbScale
 70
     0
300
3" = 1'-0"
140
3.0
141
12.0
290
     0
  0
SCALE
  5
2A3F
102
{ACAD_REACTORS
330
2A19
102
}
330
2A19
100
AcDbScale
 70
     0
300
6" = 1'-0"
140
6.0
141
12.0
290
     0
  0
SCALE
  5
2A40
102
{ACAD_REACTORS
330
2A19
102
}
330
2A19
100
AcDbScale
 70
     0
300
1'-0" = 1'-0"
140
12.0
141
12.0
290
     0
  0
TABLESTYLE
  5
2A1D
102
{ACAD_XDICTIONARY
360
2A5B
102
}
102
{ACAD_REACTORS
330
2A1A
102
}
330
2A1A
100
AcDbTableStyle
  3
Standard
 70
     0
 71
     0
 40
0.06
 41
0.06
280
     0
281
     0
  7
Standard
140
0.18
170
     2
 62
     0
 63
     7
283
     0
274
    -2
284
     1
 64
     0
275
    -2
285
     1
 65
     0
276
    -2
286
     1
 66
     0
277
    -2
287
     1
 67
     0
278
    -2
288
     1
 68
     0
279
    -2
289
     1
 69
     0
  7
Standard
140
0.25
170
     5
 62
     0
 63
     7
283
     0
274
    -2
284
     1
 64
     0
275
    -2
285
     1
 65
     0
276
    -2
286
     1
 66
     0
277
    -2
287
     1
 67
     0
278
    -2
288
     1
 68
     0
279
    -2
289
     1
 69
     0
  7
Standard
140
0.18
170
     5
 62
     0
 63
     7
283
     0
274
    -2
284
     1
 64
     0
275
    -2
285
     1
 65
     0
276
    -2
286
     1
 66
     0
277
    -2
287
     1
 67
     0
278
    -2
288
     1
 68
     0
279
    -2
289
     1
 69
     0
  0
VISUALSTYLE
  5
29FE
102
{ACAD_XDICTIONARY
360
2B92
102
}
102
{ACAD_REACTORS
330
29FF
102
}
330
29FF
100
AcDbVisualStyle
  2

 70
     4
 71
     0
 72
     2
 73
     0
 90
        0
 40
-0.6
 41
-30.0
 62
     5
 63
     7
 74
     1
 91
        4
 64
     7
 65
   257
 75
     1
175
     1
 42
1.0
 92
        0
 66
   257
 43
1.0
 76
     1
 77
     6
 78
     2
 67
     7
 79
     5
170
     0
171
     0
290
     0
174
     0
 93
        1
 44
0.0
173
     0
291
     0
 45
0.0
1001
ACAD
1000
AcDbSavedByObjectVersion
1070
     0
  0
VISUALSTYLE
  5
2A74
102
{ACAD_XDICTIONARY
360
2BA3
102
}
102
{ACAD_REACTORS
330
29FF
102
}
330
29FF
100
AcDbVisualStyle
  2

 70
     6
 71
     1
 72
     2
 73
     2
 90
        0
 40
-0.6
 41
-30.0
 62
     5
 63
     7
 74
     2
 91
        2
 64
     7
 65
   257
 75
     2
175
     1
 42
179.0
 92
        0
 66
   257
 43
1.0
 76
     1
 77
     6
 78
     2
 67
     7
 79
     3
170
     0
171
     0
290
     0
174
     0
 93
        1
 44
0.0
173
     0
291
     0
 45
0.0
1001
ACAD
1000
AcDbSavedByObjectVersion
1070
     0
  0
VISUALSTYLE
  5
2A1F
102
{ACAD_XDICTIONARY
360
2B97
102
}
102
{ACAD_REACTORS
330
29FF
102
}
330
29FF
100
AcDbVisualStyle
  2

 70
     5
 71
     0
 72
     2
 73
     0
 90
        0
 40
-0.6
 41
-30.0
 62
     5
 63
     7
 74
     1
 91
        4
 64
     7
 65
   257
 75
     1
175
     1
 42
1.0
 92
        0
 66
   257
 43
1.0
 76
     1
 77
     6
 78
     2
 67
     7
 79
     5
170
     0
171
     0
290
     0
174
     0
 93
        1
 44
0.0
173
     0
291
     0
 45
0.0
1001
ACAD
1000
AcDbSavedByObjectVersion
1070
     0
  0
VISUALSTYLE
  5
2A73
102
{ACAD_XDICTIONARY
360
2BA1
102
}
102
{ACAD_REACTORS
330
29FF
102
}
330
29FF
100
AcDbVisualStyle
  2

 70
     7
 71
     1
 72
     0
 73
     1
 90
        0
 40
-0.6
 41
-30.0
 62
     5
 63
     7
 74
     0
 91
        4
 64
     7
 65
   257
 75
     1
175
     1
 42
1.0
 92
        8
 66
     7
 43
1.0
 76
     1
 77
     6
 78
     2
 67
     7
 79
     5
170
     0
171
     0
290
     0
174
     0
 93
        1
 44
0.0
173
     0
291
     1
 45
0.0
1001
ACAD
1000
AcDbSavedByObjectVersion
1070
     0
  0
VISUALSTYLE
  5
2A77
102
{ACAD_XDICTIONARY
360
2BA9
102
}
102
{ACAD_REACTORS
330
29FF
102
}
330
29FF
100
AcDbVisualStyle
  2

 70
    12
 71
     2
 72
     2
 73
     0
 90
        0
 40
-0.6
 41
-30.0
 62
     5
 63
     7
 74
     1
 91
        4
 64
     7
 65
   257
 75
     1
175
     1
 42
1.0
 92
        8
 66
     7
 43
1.0
 76
     1
 77
     6
 78
     2
 67
     7
 79
     5
170
     0
171
     0
290
     0
174
     0
 93
        1
 44
50.0
173
     0
291
     1
 45
0.0
1001
ACAD
1000
AcDbSavedByObjectVersion
1070
     0
  0
VISUALSTYLE
  5
2A7B
102
{ACAD_XDICTIONARY
360
2BB1
102
}
102
{ACAD_REACTORS
330
29FF
102
}
330
29FF
100
AcDbVisualStyle
  2

 70
    16
 71
     2
 72
     2
 73
     3
 90
        0
 40
-0.6
 41
-30.0
 62
     5
 63
     8
 74
     1
 91
        4
 64
     7
 65
   257
 75
     1
175
     1
 42
1.0
 92
        8
 66
     8
 43
1.0
 76
     1
 77
     6
 78
     2
 67
     7
 79
     5
170
     0
171
     0
290
     0
174
     0
 93
        1
 44
0.0
173
     0
291
     1
 45
0.0
1001
ACAD
1000
AcDbSavedByObjectVersion
1070
     0
  0
VISUALSTYLE
  5
2A75
102
{ACAD_XDICTIONARY
360
2BA5
102
}
102
{ACAD_REACTORS
330
29FF
102
}
330
29FF
100
AcDbVisualStyle
  2

 70
     9
 71
     3
 72
     2
 73
     0
 90
        0
 40
-0.6
 41
-30.0
 62
     5
 63
     7
 74
     2
 91
        2
 64
     7
 65
   257
 75
     1
175
     1
 42
179.0
 92
        8
 66
     7
 43
1.0
 76
     1
 77
     6
 78
     2
 67
     7
 79
     3
170
     0
171
     0
290
     0
174
     0
 93
        1
 44
0.0
173
     0
291
     0
 45
0.0
1001
ACAD
1000
AcDbSavedByObjectVersion
1070
     0
  0
VISUALSTYLE
  5
2A76
102
{ACAD_XDICTIONARY
360
2BA7
102
}
102
{ACAD_REACTORS
330
29FF
102
}
330
29FF
100
AcDbVisualStyle
  2

 70
    11
 71
     2
 72
     2
 73
     0
 90
        0
 40
-0.6
 41
-30.0
 62
     5
 63
     7
 74
     1
 91
        4
 64
     7
 65
   257
 75
     1
175
     1
 42
1.0
 92
        8
 66
     7
 43
1.0
 76
     1
 77
     6
 78
     2
 67
     7
 79
     5
170
     0
171
     0
290
     0
174
     0
 93
        1
 44
-50.0
173
     0
291
     1
 45
0.0
1001
ACAD
1000
AcDbSavedByObjectVersion
1070
     0
  0
VISUALSTYLE
  5
2A7E
102
{ACAD_XDICTIONARY
360
2BB7
102
}
102
{ACAD_REACTORS
330
29FF
102
}
330
29FF
100
AcDbVisualStyle
  2

 70
    22
 71
     2
 72
     2
 73
     0
 90
        0
 40
-0.6
 41
-30.0
 62
     5
 63
     7
 74
     1
 91
        4
 64
     7
 65
   257
 75
     1
175
     1
 42
1.0
 92
        8
 66
     7
 43
1.0
 76
     1
 77
     6
 78
     2
 67
     7
 79
     5
170
     0
171
     0
290
     0
174
     0
 93
        1
 44
0.0
173
     0
291
     1
 45
0.0
1001
ACAD
1000
AcDbSavedByObjectVersion
1070
     0
  0
VISUALSTYLE
  5
2A7A
102
{ACAD_XDICTIONARY
360
2BAF
102
}
102
{ACAD_REACTORS
330
29FF
102
}
330
29FF
100
AcDbVisualStyle
  2

 70
    15
 71
     2
 72
     2
 73
     0
 90
        0
 40
-0.6
 41
-30.0
 62
     5
 63
     7
 74
     1
 91
        4
 64
     7
 65
   257
 75
     1
175
     1
 42
1.0
 92
        8
 66
     7
 43
1.0
 76
     1
 77
     6
 78
     2
 67
     7
 79
     5
170
     0
171
     0
290
     0
174
     0
 93
        1
 44
0.0
173
     0
291
     1
 45
0.0
1001
ACAD
1000
AcDbSavedByObjectVersion
1070
     0
  0
VISUALSTYLE
  5
2A6F
102
{ACAD_XDICTIONARY
360
2B99
102
}
102
{ACAD_REACTORS
330
29FF
102
}
330
29FF
100
AcDbVisualStyle
  2

 70
     0
 71
     2
 72
     1
 73
     1
 90
        2
 40
-0.6
 41
30.0
 62
     5
 63
     7
 74
     0
 91
        4
 64
     7
 65
   257
 75
     1
175
     1
 42
1.0
 92
        8
 66
     7
 43
1.0
 76
     1
 77
     6
 78
     2
 67
     7
 79
     5
170
     0
171
     0
290
     0
174
     0
 93
       13
 44
0.0
173
     0
291
     1
 45
0.0
1001
ACAD
1000
AcDbSavedByObjectVersion
1070
     0
  0
VISUALSTYLE
  5
2A70
102
{ACAD_XDICTIONARY
360
2B9B
102
}
102
{ACAD_REACTORS
330
29FF
102
}
330
29FF
100
AcDbVisualStyle
  2

 70
     1
 71
     2
 72
     1
 73
     1
 90
        2
 40
-0.6
 41
30.0
 62
     5
 63
     7
 74
     1
 91
        4
 64
     7
 65
   257
 75
     1
175
     1
 42
1.0
 92
        0
 66
   257
 43
1.0
 76
     1
 77
     6
 78
     2
 67
     7
 79
     5
170
     0
171
     0
290
     0
174
     0
 93
       13
 44
0.0
173
     0
291
     1
 45
0.0
1001
ACAD
1000
AcDbSavedByObjectVersion
1070
     0
  0
VISUALSTYLE
  5
2A71
102
{ACAD_XDICTIONARY
360
2B9D
102
}
102
{ACAD_REACTORS
330
29FF
102
}
330
29FF
100
AcDbVisualStyle
  2

 70
     2
 71
     2
 72
     2
 73
     1
 90
        2
 40
-0.6
 41
30.0
 62
     5
 63
     7
 74
     0
 91
        4
 64
     7
 65
   257
 75
     1
175
     1
 42
1.0
 92
        0
 66
     7
 43
1.0
 76
     1
 77
     6
 78
     2
 67
     7
 79
     5
170
     0
171
     0
290
     0
174
     0
 93
       13
 44
0.0
173
     0
291
     1
 45
0.0
1001
ACAD
1000
AcDbSavedByObjectVersion
1070
     0
  0
VISUALSTYLE
  5
2A72
102
{ACAD_XDICTIONARY
360
2B9F
102
}
102
{ACAD_REACTORS
330
29FF
102
}
330
29FF
100
AcDbVisualStyle
  2

 70
     3
 71
     2
 72
     2
 73
     1
 90
        2
 40
-0.6
 41
30.0
 62
     5
 63
     7
 74
     1
 91
        4
 64
     7
 65
   257
 75
     1
175
     1
 42
1.0
 92
        0
 66
   257
 43
1.0
 76
     1
 77
     6
 78
     2
 67
     7
 79
     5
170
     0
171
     0
290
     0
174
     0
 93
       13
 44
0.0
173
     0
291
     1
 45
0.0
1001
ACAD
1000
AcDbSavedByObjectVersion
1070
     0
  0
VISUALSTYLE
  5
2A7C
102
{ACAD_XDICTIONARY
360
2BB3
102
}
102
{ACAD_REACTORS
330
29FF
102
}
330
29FF
100
AcDbVisualStyle
  2

 70
    20
 71
     2
 72
     2
 73
     0
 90
        0
 40
-0.6
 41
-30.0
 62
     5
 63
     7
 74
     1
 91
        4
 64
     7
 65
   257
 75
     1
175
     1
 42
1.0
 92
       10
 66
     7
 43
1.0
 76
     1
 77
     6
 78
     2
 67
     7
 79
     5
170
     0
171
     0
290
     0
174
     0
 93
        1
 44
0.0
173
     0
291
     1
 45
0.0
1001
ACAD
1000
AcDbSavedByObjectVersion
1070
     0
  0
VISUALSTYLE
  5
2A79
102
{ACAD_XDICTIONARY
360
2BAD
102
}
102
{ACAD_REACTORS
330
29FF
102
}
330
29FF
100
AcDbVisualStyle
  2

 70
    14
 71
     2
 72
     2
 73
     0
 90
        0
 40
-0.6
 41
-30.0
 62
     5
 63
     7
 74
     1
 91
        4
 64
     7
 65
   257
 75
     7
175
     7
 42
1.0
 92
        8
 66
     7
 43
1.0
 76
     1
 77
     6
 78
     2
 67
     7
 79
     5
170
     0
171
     0
290
     0
174
     0
 93
        1
 44
0.0
173
     0
291
     1
 45
0.0
1001
ACAD
1000
AcDbSavedByObjectVersion
1070
     0
  0
VISUALSTYLE
  5
2A7D
102
{ACAD_XDICTIONARY
360
2BB5
102
}
102
{ACAD_REACTORS
330
29FF
102
}
330
29FF
100
AcDbVisualStyle
  2

 70
    21
 71
     2
 72
     2
 73
     0
 90
        0
 40
-0.6
 41
-30.0
 62
     5
 63
     7
 74
     1
 91
        4
 64
     7
 65
   257
 75
     1
175
     1
 42
1.0
 92
        9
 66
     7
 43
1.0
 76
     1
 77
     6
 78
     2
 67
     7
 79
     5
170
     0
171
     0
290
     0
174
     0
 93
        1
 44
0.0
173
     0
291
     1
 45
0.0
1001
ACAD
1000
AcDbSavedByObjectVersion
1070
     0
  0
VISUALSTYLE
  5
2A1E
102
{ACAD_XDICTIONARY
360
2B95
102
}
102
{ACAD_REACTORS
330
29FF
102
}
330
29FF
100
AcDbVisualStyle
  2

 70
     8
 71
     2
 72
     2
 73
     0
 90
        0
 40
-0.6
 41
-30.0
 62
     5
 63
     7
 74
     1
 91
        0
 64
     7
 65
   257
 75
     1
175
     1
 42
1.0
 92
        8
 66
     8
 43
1.0
 76
     1
 77
     6
 78
     2
 67
     7
 79
     5
170
     0
171
     0
290
     0
174
     0
 93
       13
 44
0.0
173
     0
291
     0
 45
0.0
1001
ACAD
1000
AcDbSavedByObjectVersion
1070
     0
  0
VISUALSTYLE
  5
2A78
102
{ACAD_XDICTIONARY
360
2BAB
102
}
102
{ACAD_REACTORS
330
29FF
102
}
330
29FF
100
AcDbVisualStyle
  2

 70
    13
 71
     2
 72
     2
 73
     0
 90
        0
 40
-0.6
 41
-30.0
 62
     5
 63
     7
 74
     1
 91
        4
 64
     7
 65
   257
 75
     1
175
     1
 42
1.0
 92
       12
 66
     7
 43
1.0
 76
     1
 77
     6
 78
     2
 67
     7
 79
     5
170
     0
171
     0
290
     0
174
     0
 93
        1
 44
0.0
173
     0
291
     1
 45
0.0
1001
ACAD
1000
AcDbSavedByObjectVersion
1070
     0
  0
DICTIONARYVAR
  5
2A54
102
{ACAD_REACTORS
330
2A51
102
}
330
2A51
100
DictionaryVariables
280
     0
  1
1:1
  0
DICTIONARYVAR
  5
2A53
102
{ACAD_REACTORS
330
2A51
102
}
330
2A51
100
DictionaryVariables
280
     0
  1
STANDARD
  0
DICTIONARYVAR
  5
2A52
102
{ACAD_REACTORS
330
2A51
102
}
330
2A51
100
DictionaryVariables
280
     0
  1
STANDARD
  0
DICTIONARYVAR
  5
2A59
102
{ACAD_REACTORS
330
2A51
102
}
330
2A51
100
DictionaryVariables
280
     0
  1
1
  0
DICTIONARYVAR
  5
2A57
102
{ACAD_REACTORS
330
2A51
102
}
330
2A51
100
DictionaryVariables
280
     0
  1
1
  0
DICTIONARYVAR
  5
2A56
102
{ACAD_REACTORS
330
2A51
102
}
330
2A51
100
DictionaryVariables
280
     0
  1
0
  0
DICTIONARYVAR
  5
2A55
102
{ACAD_REACTORS
330
2A51
102
}
330
2A51
100
DictionaryVariables
280
     0
  1
127
  0
DICTIONARYVAR
  5
2B8B
102
{ACAD_REACTORS
330
2A51
102
}
330
2A51
100
DictionaryVariables
280
     0
  1
2
  0
DICTIONARY
  5
29EE
330
29ED
100
AcDbDictionary
280
     1
281
     1
  3
ACAD_XREC_ROUNDTRIP
360
2B91
  3
ADSK_XREC_LAYOUTTHUMBNAIL
360
29EF
  0
DICTIONARY
  5
2B8F
330
29E8
100
AcDbDictionary
280
     1
281
     1
  3
ACAD_XREC_ROUNDTRIP
360
2B90
  0
DICTIONARY
  5
2A11
330
2A10
100
AcDbDictionary
280
     1
281
     1
  3
ACAD_XREC_ROUNDTRIP
360
2A66
  3
BUMPTILE
360
2A12
  3
DIFFUSETILE
360
2A13
  3
OPACITYTILE
360
2A14
  3
REFLECTIONTILE
360
2A15
  3
REFRACTIONTILE
360
2A16
  3
SPECULARTILE
360
2A17
  0
DICTIONARY
  5
2A09
330
2A08
100
AcDbDictionary
280
     1
281
     1
  3
ACAD_XREC_ROUNDTRIP
360
2A65
  3
BUMPTILE
360
2A0A
  3
DIFFUSETILE
360
2A0B
  3
OPACITYTILE
360
2A0C
  3
REFLECTIONTILE
360
2A0D
  3
REFRACTIONTILE
360
2A0E
  3
SPECULARTILE
360
2A0F
  0
DICTIONARY
  5
29DF
330
29DD
100
AcDbDictionary
280
     1
281
     1
  3
ACAD_XREC_ROUNDTRIP
360
2A5F
  3
BUMPTILE
360
29E0
  3
DIFFUSETILE
360
29E1
  3
OPACITYTILE
360
29E2
  3
REFLECTIONTILE
360
29E3
  3
REFRACTIONTILE
360
29E4
  3
SPECULARTILE
360
29E5
  0
DICTIONARY
  5
2A5B
330
2A1D
100
AcDbDictionary
280
     1
281
     1
  3
ACAD_ROUNDTRIP_2008_TABLESTYLE_CELLSTYLEMAP
360
2B8C
  3
ACAD_XREC_ROUNDTRIP
360
2B94
  0
DICTIONARY
  5
2B92
330
29FE
100
AcDbDictionary
280
     1
281
     1
  3
ACAD_XREC_ROUNDTRIP
360
2B93
  0
DICTIONARY
  5
2BA3
330
2A74
100
AcDbDictionary
280
     1
281
     1
  3
ACAD_XREC_ROUNDTRIP
360
2BA4
  0
DICTIONARY
  5
2B97
330
2A1F
100
AcDbDictionary
280
     1
281
     1
  3
ACAD_XREC_ROUNDTRIP
360
2B98
  0
DICTIONARY
  5
2BA1
330
2A73
100
AcDbDictionary
280
     1
281
     1
  3
ACAD_XREC_ROUNDTRIP
360
2BA2
  0
DICTIONARY
  5
2BA9
330
2A77
100
AcDbDictionary
280
     1
281
     1
  3
ACAD_XREC_ROUNDTRIP
360
2BAA
  0
DICTIONARY
  5
2BB1
330
2A7B
100
AcDbDictionary
280
     1
281
     1
  3
ACAD_XREC_ROUNDTRIP
360
2BB2
  0
DICTIONARY
  5
2BA5
330
2A75
100
AcDbDictionary
280
     1
281
     1
  3
ACAD_XREC_ROUNDTRIP
360
2BA6
  0
DICTIONARY
  5
2BA7
330
2A76
100
AcDbDictionary
280
     1
281
     1
  3
ACAD_XREC_ROUNDTRIP
360
2BA8
  0
DICTIONARY
  5
2BB7
330
2A7E
100
AcDbDictionary
280
     1
281
     1
  3
ACAD_XREC_ROUNDTRIP
360
2BB8
  0
DICTIONARY
  5
2BAF
330
2A7A
100
AcDbDictionary
280
     1
281
     1
  3
ACAD_XREC_ROUNDTRIP
360
2BB0
  0
DICTIONARY
  5
2B99
330
2A6F
100
AcDbDictionary
280
     1
281
     1
  3
ACAD_XREC_ROUNDTRIP
360
2B9A
  0
DICTIONARY
  5
2B9B
330
2A70
100
AcDbDictionary
280
     1
281
     1
  3
ACAD_XREC_ROUNDTRIP
360
2B9C
  0
DICTIONARY
  5
2B9D
330
2A71
100
AcDbDictionary
280
     1
281
     1
  3
ACAD_XREC_ROUNDTRIP
360
2B9E
  0
DICTIONARY
  5
2B9F
330
2A72
100
AcDbDictionary
280
     1
281
     1
  3
ACAD_XREC_ROUNDTRIP
360
2BA0
  0
DICTIONARY
  5
2BB3
330
2A7C
100
AcDbDictionary
280
     1
281
     1
  3
ACAD_XREC_ROUNDTRIP
360
2BB4
  0
DICTIONARY
  5
2BAD
330
2A79
100
AcDbDictionary
280
     1
281
     1
  3
ACAD_XREC_ROUNDTRIP
360
2BAE
  0
DICTIONARY
  5
2BB5
330
2A7D
100
AcDbDictionary
280
     1
281
     1
  3
ACAD_XREC_ROUNDTRIP
360
2BB6
  0
DICTIONARY
  5
2B95
330
2A1E
100
AcDbDictionary
280
     1
281
     1
  3
ACAD_XREC_ROUNDTRIP
360
2B96
  0
DICTIONARY
  5
2BAB
330
2A78
100
AcDbDictionary
280
     1
281
     1
  3
ACAD_XREC_ROUNDTRIP
360
2BAC
  0
XRECORD
  5
2B91
102
{ACAD_REACTORS
330
29EE
102
}
330
29EE
100
AcDbXrecord
280
     1
102
SHADEPLOT
 70
     0
102
SHADEPLOTRESLEVEL
 70
     2
102
SHADEPLOTCUSTOMDPI
 70
   300
  0
XRECORD
  5
29EF
102
{ACAD_REACTORS
330
29EE
102
}
330
29EE
100
AcDbXrecord
280
     1
310
28000000B40000008B0000000100080000000000BC61000000000000000000000001000000000000FFFFFF0000000000FFFFFF000000000000000000000000000000000000000000000000000000000000000000330000006600000099000000CC000000FF00000000330000333300006633000099330000CC330000FF3300
310
0000660000336600006666000099660000CC660000FF66000000990000339900006699000099990000CC990000FF99000000CC000033CC000066CC000099CC0000CCCC0000FFCC000000FF000033FF000066FF000099FF0000CCFF0000FFFF000000003300330033006600330099003300CC003300FF003300003333003333
310
33006633330099333300CC333300FF33330000663300336633006666330099663300CC663300FF66330000993300339933006699330099993300CC993300FF99330000CC330033CC330066CC330099CC3300CCCC3300FFCC330000FF330033FF330066FF330099FF3300CCFF3300FFFF330000006600330066006600660099
310
006600CC006600FF00660000336600333366006633660099336600CC336600FF33660000666600336666006666660099666600CC666600FF66660000996600339966006699660099996600CC996600FF99660000CC660033CC660066CC660099CC6600CCCC6600FFCC660000FF660033FF660066FF660099FF6600CCFF6600
310
FFFF660000009900330099006600990099009900CC009900FF00990000339900333399006633990099339900CC339900FF33990000669900336699006666990099669900CC669900FF66990000999900339999006699990099999900CC999900FF99990000CC990033CC990066CC990099CC9900CCCC9900FFCC990000FF99
310
0033FF990066FF990099FF9900CCFF9900FFFF99000000CC003300CC006600CC009900CC00CC00CC00FF00CC000033CC003333CC006633CC009933CC00CC33CC00FF33CC000066CC003366CC006666CC009966CC00CC66CC00FF66CC000099CC003399CC006699CC009999CC00CC99CC00FF99CC0000CCCC0033CCCC0066CC
310
CC0099CCCC00CCCCCC00FFCCCC0000FFCC0033FFCC0066FFCC0099FFCC00CCFFCC00FFFFCC000000FF003300FF006600FF009900FF00CC00FF00FF00FF000033FF003333FF006633FF009933FF00CC33FF00FF33FF000066FF003366FF006666FF009966FF00CC66FF00FF66FF000099FF003399FF006699FF009999FF00CC
310
99FF00FF99FF0000CCFF0033CCFF0066CCFF0099CCFF00CCCCFF00FFCCFF0000FFFF0033FFFF0066FFFF0099FFFF00CCFFFF00FFFFFF00000000000D0D0D001A1A1A00282828003535350043434300505050005D5D5D006B6B6B00787878008686860093939300A1A1A100AEAEAE00BBBBBB00C9C9C900D6D6D600E4E4E400
310
F1F1F100FFFFFF0000000000000000000000000000000000000000000000000000000000000000000000000000000000E2E2E2E2E2E2E2E2E2E2E2E2E2E2E2E2E2E2E2E2E2E2E2E2E2E2E2E2E2E2E2E2E2E2E2E2E2E2E2E2E2E2E2E2E2E2E2E2E2E2E2E2E2E2E2E2E2E2E2E2E2E2E2E2E2E2E2E2E2E2E2E2E2E2E2E2E2E2E2
310
E2E2E2E2E2E2E2E2E2E2E2E2E2E2E2E2E2E2E2E2E2E2E2E2E2E2E2E2E2E2E2E2E2E2E2E2E2E2E2E2E2E2E2E2E2E2E2E2E2E2E2E2E2E2E2E2E2E2E2E2E2E2E2E2E2E2E2E2E2E2E2E2E2E2E2E2E2E2E2E2E2E2E2E2E2E2E2E2E2E2E2E2E2E2E2E2E2E2E2E2EFF5F5F5F5F5F5F5F5F5F5F5F5F5F5F5F5F5F5F5F5F5F5F5F5F5F5
310
F5F5F5F5F5F5F5F5F5F5F5F5F5F5F5F5F5F5F5F5F5F5F5F5F5F5F5F5F5F5F5F5F5F5F5F5F5F5F5F5F5F5F5F5F5F5F5F5F5F5F5F5F5F5F5F5F5F5F5F5F5F5F5F5F5F5F5F5F5F5F5F5F5F5F5F5F5F5F5F5F5F5F5F5F5F5F5F5F5F5F5F5F5F5F5F5F5F5F5F5F5F5F5F5F5F5F5F5F5F5F5F5F5F5F5F5F5F5F5F5F5F5F5F5F5F5F5
310
F5F5F5F5F5F5F5F5F5F5F5F5F5F5F5F5F5F5F5F5F5F5F5F5E2E2EFF5F5F5F5F5F5F5F5F5F5F5F5F5F5F5F5F5F5F5F5F5F5F5F5F5F5F5F5F5F5F5F5F5F5F5F5F5F5F5F5F5F5F5F5F5F5F5F5F5F5F5F5F5F5F5F5F5F5F5F5F5F5F5F5F5F5F5F5F5F5F5F5F5F5F5F5F5F5F5F5F5F5F5F5F5F5F5F5F5F5F5F5F5F5F5F5F5F5F5F5
310
F5F5F5F5F5F5F5F5F5F5F5F5F5F5F5F5F5F5F5F5F5F5F5F5F5F5F5F5F5F5F5F5F5F5F5F5F5F5F5F5F5F5F5F5F5F5F5F5F5F5F5F5F5F5F5F5F5F5F5F5F5F5F5F5F5F5F5F5F5F5F5F5F5F5F5F5F5E2E2EFF5F5F5F5F5F5F5F5F5F5F5F5F5F5F5F5F5F5F5F5F5F5F5F5F5F5F5F5F5F5F5F5F5F5F5F5F5F5F5F5F5F5F5F5F5F5F5
310
F5F5F5F5F5F5F5F5F5F5F5F5F5F5F5F5F5F5F5F5F5F5F5F5F5F5F5F5F5F5F5F5F5F5F5F5F5F5F5F5F5F5F5F5F5F5F5F5F5F5F5F5F5F5F5F5F5F5F5F5F5F5F5F5F5F5F5F5F5F5F5F5F5F5F5F5F5F5F5F5F5F5F5F5F5F5F5F5F5F5F5F5F5F5F5F5F5F5F5F5F5F5F5F5F5F5F5F5F5F5F5F5F5F5F5F5F5F5F5F5F5F5F5F5F5F5F5
310
F5F5F5E2E2EFF5F5F5E2E2E2E2E2E2E2E2F5F5F5F5F5F5F5F5F5E2E2E2E2E2E2E2E2E2E2E2E2E2E2E2E2F5F5F5F5F5F5F5F5E2E2E2E2E2E2E2E2E2E2E2E2E2E2E2E2F5F5F5F5F5F5F5F5F5E2E2E2E2E2E2E2E2E2E2E2E2E2E2E2F5F5F5F5F5F5F5F5F5E2E2E2E2E2E2E2E2E2E2E2E2E2E2E2F5F5F5F5F5F5F5F5F5E2E2E2E2
310
E2E2E2E2E2E2E2E2E2E2E2E2F5F5F5F5F5F5F5F5E2E2E2E2E2E2E2E2E2E2E2E2E2E2E2E2F5F5F5F5F5F5F5F5F5E2E2E2E2E2E2E2E2F5F5F5E2E2EFF5F5F5E2F5F5F5F5F5F5F5F5F5F5F5F5F5F5F5F5F5F5F5F5F5F5F5F5F5F5F5F5F5F5F5F5F5F5F5F5F5F5F5F5F5F5F5F5F5F5F5F5F5F5F5F5F5F5F5F5F5F5F5F5F5F5F5F5
310
F5F5F5F5F5F5F5F5F5F5F5F5F5F5F5F5F5F5F5F5F5F5F5F5F5F5F5F5F5F5F5F5F5F5F5F5F5F5F5F5F5F5F5F5F5F5F5F5F5F5F5F5F5F5F5F5F5F5F5F5F5F5F5F5F5F5F5F5F5F5F5F5F5F5F5F5F5F5F5F5F5F5F5F5F5F5F5F5F5F5F5F5F5F5F5F5F5F5F5F5F5F5F5F5F5E2F5F5F5E2E2EFF5F5F5E2F5F5F5F5F5F5F5F5F5F5F5
310
F5F5F5F5F5F5F5F5F5F5F5F5F5F5F5F5F5F5F5F5F5F5F5F5F5F5F5F5F5F5F5F5F5F5F5F5F5F5F5F5F5F5F5F5F5F5F5F5F5F5F5F5F5F5F5F5F5F5F5F5F5F5F5F5F5F5F5F5F5F5F5F5F5F5F5F5F5F5F5F5F5F5F5F5F5F5F5F5F5F5F5F5F5F5F5F5F5F5F5F5F5F5F5F5F5F5F5F5F5F5F5F5F5F5F5F5F5F5F5F5F5F5F5F5F5F5F5
310
F5F5F5F5F5F5F5F5F5F5F5F5F5F5F5F5F5F5F5F5F5F5F5F5F5F5F5F5F5F5F5E2F5F5F5E2E2EFF5F5F5E2F5F5F5F5F5F5F5F5F5F5F5F5F5F5F5F5F5F5F5F5F5F5F5F5F5F5F5F5F5F5F5F5F5F5F5F5F5F5F5F5F5F5F5F5F5F5F5F5F5F5F5F5F5F5F5F5F5F5F5F5F5F5F5F5F5F5F5F5F5F5F5F5F5F5F5F5F5F5F5F5F5F5F5F5F5
310
F5F5F5F5F5F5F5F5F5F5F5F5F5F5F5F5F5F5F5F5F5F5F5F5F5F5F5F5F5F5F5F5F5F5F5F5F5F5F5F5F5F5F5F5F5F5F5F5F5F5F5F5F5F5F5F5F5F5F5F5F5F5F5F5F5F5F5F5F5F5F5F5F5F5F5F5F5F5F5F5F5F5F5F5E2F5F5F5E2E2EFF5F5F5E2F5F5F5F5F5F5F5F5F5F5F5F5F5F5F5F5F5F5F5F5F5F5F5F5F5F5F5F5F5F5F5F5
310
F5F5F5F5F5F5F5F5F5F5F5F5F5F5F5F5F5F5F5F5F5F5F5F5F5F5F5F5F5F5F5F5F5F5F5F5F5F5F5F5F5F5F5F5F5F5F5F5F5F5F5F5F5F5F5F5F5F5F5F5F5F5F5F5F5F5F5F5F5F5F5F5F5F5F5F5F5F5F5F5F5F5F5F5F5F5F5F5F5F5F5F5F5F5F5F5F5F5F5F5F5F5F5F5F5F5F5F5F5F5F5F5F5F5F5F5F5F5F5F5F5F5F5F5F5F5F5
310
F5F5F5F5F5F5F5F5F5F5E2F5F5F5E2E2EFF5F5F5E2F5F5F5F5F5F5F5F5F5F5F5F5F5F5F5F5F5F5F5F5F5F5F5F5F5F5F5F5F5F5F5F5F5F5F5F5F5F5F5F5F5F5F5F5F5F5F5F5F5F5F5F5F5F5F5F5F5F5F5F5F5F5F5F5F5F5F5F5F5F5F5F5F5F5F5F5F5F5F5F5F5F5F5F5F5F5F5F5F5F5F5F5F5F5F5F5F5F5F5F5F5F5F5F5F5F5
310
F5F5F5F5F5F5F5F5F5F5F5F5F5F5F5F5F5F5F5F5F5F5F5F5F5F5F5F5F5F5F5F5F5F5F5F5F5F5F5F5F5F5F5F5F5F5F5F5F5F5F5F5F5F5F5F5F5F5F5F5F5F5F5E2F5F5F5E2E2EFF5F5F5E2F5F5F5F5F5F5F5F5F5F5F5F5F5F5F5F5F5F5F5F5F5F5F5F5F5F5F5F5F5F5F5F5F5F5F5F5F5F5F5F5F5F5F5F5F5F5F5F5F5F5F5F5F5
310
F5F5F5F5F5F5F5F5F5F5F5F5F5F5F5F5F5F5F5F5F5F5F5F5F5F5F5F5F5F5F5F5F5F5F5F5F5F5F5F5F5F5F5F5F5F5F5F5F5F5F5F5F5F5F5F5F5F5F5F5F5F5F5F5F5F5F5F5F5F5F5F5F5F5F5F5F5F5F5F5F5F5F5F5F5F5F5F5F5F5F5F5F5F5F5F5F5F5F5F5F5F5F5F5F5F5F5F5F5F5F5F5F5F5F5F5E2F5F5F5E2E2EFF5F5F5E2
310
F5F5F5F5F5F5F5F5F5F5F5F5F5F5F5F5F5F5F5F5F5F5F5F5F5F5F5F5F5F5F5F5F5F5F5F5F5F5F5F5F5F5F5F5F5F5F5F5F5F5F5F5F5F5F5F5F5F5F5F5F5F5F5F5F5F5F5F5F5F5F5F5F5F5F5F5F5F5F5F5F5F5F5F5F5F5F5F5F5F5F5F5F5F5F5F5F5F5F5F5F5F5F5F5F5F5F5F5F5F5F5F5F5F5F5F5F5F5F5F5F5F5F5F5F5F5F5
310
F5F5F5F5F5F5F5F5F5F5F5F5F5F5F5F5F5F5F5F5F5F5F5F5F5F5F5F5F5F5F5F5F5F5F5F5F5F5F5F5F5F5E2F5F5F5E2E2EFF5F5F5E2F5F5F5F5F5F5F5F5F5F5F5F5F5F5F5F5F5F5F5F5F5F5F5F5F5F5F5F5F5F5F5F5F5F5F5F5F5F5F5F5F5F5F5F5F5F5F5F5F5F5F5F5F5F5F5F5F5F5F5F5F5F5F5F5F5F5F5F5F5F5F5F5F5F5
310
F5F5F5F5F5F5F5F5F5F5F5F5F5F5F5F5F5F5F5F5F5F5F5F5F5F5F5F5F5F5F5F5F5F5F5F5F5F5F5F5F5F5F5F5F5F5F5F5F5F5F5F5F5F5F5F5F5F5F5F5F5F5F5F5F5F5F5F5F5F5F5F5F5F5F5F5F5F5F5F5F5F5F5F5F5F5F5F5F5F5F5F5F5F5F5E2F5F5F5E2E2EFF5F5F5F5F5F5F5F5F5F5F5F5F5F5F5F5F5F5F5F5F5F5F5F5F5
310
F5F5F5F5F5F5F5F5F5F5F5F5F5F5F5F5F5F5F5F5F5F5F5F5F5F5F5F5F5F5F5F5F5F5F5F5F5F5F5F5F5F5F5F5F5F5F5F5F5F5F5F5F5F5F5F5F5F5F5F5F5F5F5F5F5F5F5F5F5F5F5F5F5F5F5F5F5F5F5F5F5F5F5F5F5F5F5F5F5F5F5F5F5F5F5F5F5F5F5F5F5F5F5F5F5F5F5F5F5F5F5F5F5F5F5F5F5F5F5F5F5F5F5F5F5F5F5
310
F5F5F5F5F5F5F5F5F5F5F5F5F5F5F5F5F5F5F5F5F5F5F5F5F5E2E2EFF5F5F5F5F5F5F5F5F5F5F5F5F5F5F5F5F5F5F5F5F5F5F5F5F5F5F5F5F5F5F5F5F5F5F5F5F5F5F5F5F5F5F5F5F5F5F5F5F5F5F5F5F5F5F5F5F5F5F5F5F5F5F5F5F5F5F5F5F5F5F5F5F5F5F5F5F5F5F5F5F5F5F5F5F5F5F5F5F5F5F5F5F5F5F5F5F5F5F5
310
F5F5F5F5F5F5F5F5F5F5F5F5F5F5F5F5F5F5F5F5F5F5F5F5F5F5F5F5F5F5F5F5F5F5F5F5F5F5F5F5F5F5F5F5F5F5F5F5F5F5F5F5F5F5F5F5F5F5F5F5F5F5F5F5F5F5F5F5F5F5F5F5F5F5F5F5F5F5E2E2EFF5F5F5F5F5F5F5F5F5F5F5F5F5F5F5F5F5F5F5F5F5F5F5F5F5F5F5F5F5F5F5F5F5F5F5F5F5F5F5F5F5F5F5F5F5F5
310
F5F5F5F5F5F5F5F5F5F5F5F5F5F5F5F5F5F5F5F5F5F5F5F5F5F5F5F5F5F5F5F5F5F5F5F5F5F5F5F5F5F5F5F5F5F5F5F5F5F5F5F5F5F5F5F5F5F5F5F5F5F5F5F5F5F5F5F5F5F5F5F5F5F5F5F5F5F5F5F5F5F5F5F5F5F5F5F5F5F5F5F5F5F5F5F5F5F5F5F5F5F5F5F5F5F5F5F5F5F5F5F5F5F5F5F5F5F5F5F5F5F5F5F5F5F5F5
310
F5F5F5F5E2E2EFF5F5F5F5F5F5F5F5F5F5F5F5F5F5F5F5F5F5F5F5F5F5F5F5F5F5F5F5F5F5F5F5F5F5F5F5F5F5F5F5F5F5F5F5F5F5F5F5F5F5F5F5F5F5F5F5F5F5F5F5F5F5F5F5F5F5F5F5F5F5F5F5F5F5F5F5F5F5F5F5F5F5F5F5F5F5F5F5F5F5F5F5F5F5F5F5F5F5F5F5F5F5F5F5F5F5F5F5F5F5F5F5F5F5F5F5F5F5F5F5
310
F5F5F5F5F5F5F5F5F5F5F5F5F5F5F5F5F5F5F5F5F5F5F5F5F5F5F5F5F5F5F5F5F5F5F5F5F5F5F5F5F5F5F5F5F5F5F5F5F5F5F5F5F5F5F5F5F5E2E2EFF5F5F5F5F5F5F5F5F5F5F5F5F5F5F5F5F5F5F5F5E2E2E2E2E2E2E2E2E2E2E2E2E2E2E2E2E2E2E2E2E2E2E2E2E2E2E2E2E2E2E2E2E2E2E2E2E2E2E2E2E2E2E2E2E2E2E2
310
E2E2E2E2E2E2E2E2E2E2E2E2E2E2E2E2E2E2E2E2E2E2E2E2E2E2E2E2E2E2E2E2E2E2E2E2E2E2E2E2E2E2E2E2E2E2E2E2E2E2E2E2E2E2E2E2E2E2E2E2E2E2E2E2E2E2E2E2E2E2E2E2E2E2E2E2E2E2E2E2E2E2E2E2E2E2E2E2E2E2F5F5F5F5F5F5F5F5F5F5F5F5F5F5F5F5F5F5F5F5E2E2EFF5F5F5F5F5F5F5F5F5F5F5F5F5F5
310
F5F5F5F5F5F5E2F5F5F5F5F5F5F5F5F5F5F5F5F5F5F5F5F5F5F5F5F5F5F5F5F5F5F5F5F5F5F5F5F5F5F5F5F5F5F5F5F5F5F5F5F5F5F5F5F5F5F5F5F5F5F5F5F5F5F5F5F5F5F5F5F5F5F5F5F5F5F5F5F5F5F5F5F5F5F5F5F5F5F5F5F5F5F5F5F5F5F5F5F5F5F5F5F5F5F5F5F5F5F5F5F5F5F5F5F5F5F5F5F5F5F5F5F5F5F5F5
310
F5F5F5F5F5F5F5F5F5F5F5F5F5F5F5E2F5F5F5F5F5F5F5F5F5F5F5F5F5F5F5F5F5F5F5F5E2E2EFF5F5F5F5F5F5F5F5F5F5F5F5F5F5F5F5F5F5F5F5E2F5F5F5F5F5F5F5F5F5F5F5F5F5F5F5F5F5F5F5F5F5F5F5F5F5F5F5F5F5F5F5F5F5F5F5F5F5F5F5F5F5F5F5F5F5F5F5F5F5F5F5F5F5F5F5F5F5F5F5F5F5F5F5F5F5F5F5
310
F5F5F5F5F5F5F5F5F5F5F5F5F5F5F5F5F5F5F5F5F5F5F5F5F5F5F5F5F5F5F5F5F5F5F5F5F5F5F5F5F5F5F5F5F5F5F5F5F5F5F5F5F5F5F5F5F5F5F5F5F5F5F5F5F5F5F5F5E2F5F5F5F5F5F5F5F5F5F5F5F5F5F5F5F5F5F5F5F5E2E2EFF5F5F5F5F5F5F5F5F5F5F5F5F5F5F5F5F5F5F5F5E2F5F5F5F5F5F5F5F5F5F5F5F5F5F5
310
F5F5F5F5F5F5F5F5F5F5F5F5F5F5F5F5F5F5F5F5F5F5F5F5F5F5F5F5F5F5F5F5F5F5F5F5F5F5F5F5F5F5F5F5F5F5F5F5F5F5F5F5F5F5F5F5F5F5F5F5F5F5F5F5F5F5F5F5F5F5F5F5F5F5F5F5F5F5F5F5F5F5F5F5F5F5F5F5F5F5F5F5F5F5F5F5F5F5F5F5F5F5F5F5F5F5F5F5F5F5F5F5F5F5F5F5F5F5F5F5F5E2F5F5F5F5F5
310
F5F5F5F5F5F5F5F5F5F5F5F5F5F5F5E2E2EFF5F5F5F5F5F5F5F5F5F5F5F5F5F5F5F5F5F5F5F5E2F5F5F5F5F5F5F5F5F5F5F5F5F5F5F5F5F5F5F5F5F5F5F5F5F5F5F5F5F5F5F5F5F5F5F5F5F5F5F5F5F5F5F5F5F5F5F5F5F5F5F5F5F5F5F5F5F5F5F5F5F5F5F5F5F5F5F5F5F5F5F5F5F5F5F5F5F5F5F5F5F5F5F5F5F5F5F5F5
310
F5F5F5F5F5F5F5F5F5F5F5F5F5F5F5F5F5F5F5F5F5F5F5F5F5F5F5F5F5F5F5F5F5F5F5F5F5F5F5F5F5F5F5F5F5F5F5E2F5F5F5F5F5F5F5F5F5F5F5F5F5F5F5F5F5F5F5F5E2E2EFF5F5F5E2F5F5F5F5F5F5F5F5F5F5F5F5F5F5F5F5E2F5F5F5F5F5F5F5F5F5F5F5F5F5F5F5F5F5F5F5F5F5F5F5F5F5F5F5F5F5F5F5F5F5F5F5
310
F5F5F5F5F5F5F5F5F5F5F5F5F5F5F5F5F5F5F5F5F5F5F5F5F5F5F5F5F5F5F5F5F5F5F5F5F5F5F5F5F5F5F5F5F5F5F5F5F5F5F5F5F5F5F5F5F5F5F5F5F5F5F5F5F5F5F5F5F5F5F5F5F5F5F5F5F5F5F5F5F5F5F5F5F5F5F5F5F5F5F5F5F5F5F5F5F5F5F5F5E2F5F5F5F5F5F5F5F5F5F5F5F5F5F5F5F5E2F5F5F5E2E2EFF5F5F5
310
E2F5F5F5F5F5F5F5F5F5F5F5F5F5F5F5F5E2F5F5F5F5F5F5F5F5F5F5F5F5F5F5F5F5F5F5F5F5F5F5F5F5F5F5F5F5F5F5F5F5F5F5F5F5F5F5F5F5F5F5F5F5F5F5F5F5F5F5F5F5F5F5F5F5F5F5F5F5F5F5F5F5F5F5F5F5F5F5F5F5F5F5F5F5F5F5F5F5F5F5F5F5F5F5F5F5F5F5F5F5F5F5F5F5F5F5F5F5F5F5F5F5F5F5F5F5F5
310
F5F5F5F5F5F5F5F5F5F5F5F5F5F5F5F5F5F5F5F5F5F5F5F5F5F5E2F5F5F5F5F5F5F5F5F5F5F5F5F5F5F5F5E2F5F5F5E2E2EFF5F5F5E2F5F5F5F5F5F5F5F5F5F5F5F5F5F5F5F5E2F5F5F5F5F5F5F5F5F5F5F5F5F5F5F5F5F5F5F5F5F5F5F5F5F5F5F5F5F5F5F5F5F5F5F5F5F5F5F5F5F5F5F5F5F5F5F5F5F5F5F5F5F5F5F5F5
310
F5F5F5F5F5F5F5F5F5F5F5F5F5F5F5F5F5F5F5F5F5F5F5F5F5F5F5F5F5F5F5F5F5F5F5F5F5F5F5F5F5F5F5F5F5F5F5F5F5F5F5F5F5F5F5F5F5F5F5F5F5F5F5F5F5F5F5F5F5F5F5F5F5F5F5F5F5F5F5E2F5F5F5F5F5F5F5F5F5F5F5F5F5F5F5F5E2F5F5F5E2E2EFF5F5F5E2F5F5F5F5F5F5F5F5F5F5F5F5F5F5F5F5E2F5F5F5
310
F5F5F5F5F5F5F5F5F5F5F5F5F5F5F5F5F5F5F5F5F5F5F5F5F5F5F5F5F5F5F5F5F5F5F5F5F5F5F5F5F5F5F5F5F5F5F5F5F5F5F5F5F5F5F5F5F5F5F5F5F5F5F5F5F5F5F5F5F5F5F5F5F5F5F5F5F5F5F5F5F5F5F5F5F5F5F5F5F5F5F5F5F5F5F5F5F5F5F5F5F5F5F5F5F5F5F5F5F5F5F5F5F5F5F5F5F5F5F5F5F5F5F5F5F5F5F5
310
F5F5F5F5F5E2F5F5F5F5F5F5F5F5F5F5F5F5F5F5F5F5E2F5F5F5E2E2EFF5F5F5E2F5F5F5F5F5F5F5F5F5F5F5F5F5F5F5F5E2F5F5F5F5F5F5F5F5F5F5F5F5F5F5F5F5F5F5F5F5F5F5F5F5F5F5F5F5F5F5F5F5F5F5F5F5F5F5F5F5F5F5F5F5F5F5F5F5F5F5F5F5F5F5F5F5F5F5F5F5F5F5F5F5F5F5F5F5F5F5F5F5F5F5F5F5F5
310
F5F5F5F5F5F5F5F5F5F5F5F5F5F5F5F5F5F5F5F5F5F5F5F5F5F5F5F5F5F5F5F5F5F5F5F5F5F5F5F5F5F5F5F5F5F5F5F5F5F5F5F5F5F5F5F5F5F5E2F5F5F5F5F5F5F5F5F5F5F5F5F5F5F5F5E2F5F5F5E2E2EFF5F5F5E2F5F5F5F5F5F5F5F5F5F5F5F5F5F5F5F5E2F5F5F5F5F5F5F5F5F5F5F5F5F5F5F5F5F5F5F5F5F5F5F5F5
310
F5F5F5F5F5F5F5F5F5F5F5F5F5F5F5F5F5F5F5F5F5F5F5F5F5F5F5F5F5F5F5F5F5F5F5F5F5F5F5F5F5F5F5F5F5F5F5F5F5F5F5F5F5F5F5F5F5F5F5F5F5F5F5F5F5F5F5F5F5F5F5F5F5F5F5F5F5F5F5F5F5F5F5F5F5F5F5F5F5F5F5F5F5F5F5F5F5F5F5F5F5F5F5F5F5F5F5F5F5F5F5E2F5F5F5F5F5F5F5F5F5F5F5F5F5F5F5
310
F5E2F5F5F5E2E2EFF5F5F5E2F5F5F5F5F5F5F5F5F5F5F5F5F5F5F5F5E2F5F5F5F5F5F5F5F5F5F5F5F5F5F5F5F5F5F5F5F5F5F5F5F5F5F5F5F5F5F5F5F5F5F5F5F5F5F5F5F5F5F5F5F5F5F5F5F5F5F5F5F5F5F5F5F5F5F5F5F5F5F5F5F5F5F5F5F5F5F5F5F5F5F5F5F5F5F5F5F5F5F5F5F5F5F5F5F5F5F5F5F5F5F5F5F5F5F5
310
F5F5F5F5F5F5F5F5F5F5F5F5F5F5F5F5F5F5F5F5F5F5F5F5F5F5F5F5F5F5F5F5F5F5F5F5F5E2F5F5F5F5F5F5F5F5F5F5F5F5F5F5F5F5E2F5F5F5E2E2EFF5F5F5E2F5F5F5F5F5F5F5F5F5F5F5F5F5F5F5F5E2F5F5F5F5F5F5F5F5F5F5F5F5F5F5F5F5F5F5F5F5F5F5F5F5F5F5F5F5F5F5F5F5F5F5F5F5F5F5F5F5F5F5F5F5F5
310
F5F5F5F5F5F5F5F5F5F5F5F5F5F5F5F5F5F5F5F5F5F5F5F5F5F5F5F5F5F5F5F5F5F5F5F5F5F5F5F5F5F5F5F5F5F5F5F5F5F5F5F5F5F5F5F5F5F5F5F5F5F5F5F5F5F5F5F5F5F5F5F5F5F5F5F5F5F5F5F5F5F5F5F5F5F5F5F5F5F5E2F5F5F5F5F5F5F5F5F5F5F5F5F5F5F5F5E2F5F5F5E2E2EFF5F5F5E2F5F5F5F5F5F5F5F5F5
310
F5F5F5F5F5F5F5E2F5F5F5F5F5F5F5F5F5F5F5F5F5F5F5F5F5F5F5F5F5F5F5F5F5F5F5F5F5F5F5F5F5F5F5F5F5F5F5F5F5F5F5F5F5F5F5F5F5F5F5F5F5F5F5F5F5F5F5F5F5F5F5F5F5F5F5F5F5F5F5F5F5F5F5F5F5F5F5F5F5F5F5F5F5F5F5F5F5F5F5F5F5F5F5F5F5F5F5F5F5F5F5F5F5F5F5F5F5F5F5F5F5F5F5F5F5F5F5
310
F5F5F5F5F5F5F5F5F5F5F5F5F5F5F5F5E2F5F5F5F5F5F5F5F5F5F5F5F5F5F5F5F5E2F5F5F5E2E2EFF5F5F5E2F5F5F5F5F5F5F5F5F5F5F5F5F5F5F5F5E2F5F5F5F5F5F5F5F5F5F5F5F5F5F5F5F5F5F5F5F5F5F5F5F5F5F5F5F5F5F5F5F5F5F5F5F5F5F5F5F5F5F5F5F5F5F5F5F5F5F5F5F5F5F5F5F5F5F5F5F5F5F5F5F5F5F5
310
F5F5F5F5F5F5F5F5F5F5F5F5F5F5F5F5F5F5F5F5F5F5F5F5F5F5F5F5F5F5F5F5F5F5F5F5F5F5F5F5F5F5F5F5F5F5F5F5F5F5F5F5F5F5F5F5F5F5F5F5F5F5F5F5F5F5F5F5F5E2F5F5F5F5F5F5F5F5F5F5F5F5F5F5F5F5E2F5F5F5E2E2EFF5F5F5E2F5F5F5F5F5F5F5F5F5F5F5F5F5F5F5F5E2F5F5F5F5F5F5F5F5F5F5F5F5F5
310
F5F5F5F5F5F5F5F5F5F5F5F5F5F5F5F5F5F5F5F5F5F5F5F5F5F5F5F5F5F5F5F5F5F5F5F5F5F5F5F5F5F5F5F5F5F5F5F5F5F5F5F5F5F5F5F5F5F5F5F5F5F5F5F5F5F5F5F5F5F5F5F5F5F5F5F5F5F5F5F5F5F5F5F5F5F5F5F5F5F5F5F5F5F5F5F5F5F5F5F5F5F5F5F5F5F5F5F5F5F5F5F5F5F5F5F5F5F5F5F5F5F5E2F5F5F5F5
310
F5F5F5F5F5F5F5F5F5F5F5F5E2F5F5F5E2E2EFF5F5F5E2F5F5F5F5F5F5F5F5F5F5F5F5F5F5F5F5E2F5F5F5F5F5F5F5F5F5F5F5F5F5F5F5F5F5F5F5F5F5F5F5F5F5F5F5F5F5F5F5F5F5F5F5F5F5F5F5F5F5F5F5F5F5F5F5F5F5F5F5F5F5F5F5F5F5F5F5F5F5F5F5F5F5F5F5F5F5F5F5F5F5F5F5F5F5F5F5F5F5F5F5F5F5F5F5
310
F5F5F5F5F5F5F5F5F5F5F5F5F5F5F5F5F5F5F5F5F5F5F5F5F5F5F5F5F5F5F5F5F5F5F5F5F5F5F5F5F5F5F5F5F5F5F5F5E2F5F5F5F5F5F5F5F5F5F5F5F5F5F5F5F5E2F5F5F5E2E2EFF5F5F5E2F5F5F5F5F5F5F5F5F5F5F5F5F5F5F5F5E2F5F5F5F5F5F5F5F5F5F5F5F5F5F5F5F5F5F5F5F5F5F5F5F5F5F5F5F5F5F5F5F5F5F5
310
F5F5F5F5F5F5F5F5F5F5F5F5F5F5F5F5F5F5F5F5F5F5F5F5F5F5F5F5F5F5F5F5F5F5F5F5F5F5F5F5F5F5F5F5F5F5F5F5F5F5F5F5F5F5F5F5F5F5F5F5F5F5F5F5F5F5F5F5F5F5F5F5F5F5F5F5F5F5F5F5F5F5F5F5F5F5F5F5F5F5F5F5F5F5F5F5F5F5F5F5F5E2F5F5F5F5F5F5F5F5F5F5F5F5F5F5F5F5E2F5F5F5E2E2EFF5F5
310
F5E2F5F5F5F5F5F5F5F5F5F5F5F5F5F5F5F5E2F5F5F5F5F5F5F5F5F5F5F5F5F5F5F5F5F5F5F5F5F5F5F5F5F5F5F5F5F5F5F5F5F5F5F5F5F5F5F5F5F5F5F5F5F5F5F5F5F5F5F5F5F5F5F5F5F5F5F5F5F5F5F5F5F5F5F5F5F5F5F5F5F5F5F5F5F5F5F5F5F5F5F5F5F5F5F5F5F5F5F5F5F5F5F5F5F5F5F5F5F5F5F5F5F5F5F5F5
310
F5F5F5F5F5F5F5F5F5F5F5F5F5F5F5F5F5F5F5F5F5F5F5F5F5F5F5E2F5F5F5F5F5F5F5F5F5F5F5F5F5F5F5F5E2F5F5F5E2E2EFF5F5F5E2F5F5F5F5F5F5F5F5F5F5F5F5F5F5F5F5E2F5F5F5F5F5F5F5F5F5F5F5F5F5F5F5F5F5F5F5F5F5F5F5F5F5F5F5F5F5F5F5F5F5F5F5F5F5F5F5F5F5F5F5F5F5F5F5F5F5F5F5F5F5F5F5
310
F5F5F5F5F5F5F5F5F5F5F5F5F5F5F5F5F5F5F5F5F5F5F5F5F5F5F5F5F5F5F5F5F5F5F5F5F5F5F5F5F5F5F5F5F5F5F5F5F5F5F5F5F5F5F5F5F5F5F5F5F5F5F5F5F5F5F5F5F5F5F5F5F5F5F5F5F5F5F5F5E2F5F5F5F5F5F5F5F5F5F5F5F5F5F5F5F5E2F5F5F5E2E2EFF5F5F5E2F5F5F5F5F5F5F5F5F5F5F5F5F5F5F5F5E2F5F5
310
F5F5F5F5F5F5F5F5F5F5F5F5F5F5F5F5F5F5F5F5F5F5F5F5F5F5F5F5F5F5F5F5F5F5F5F5F5F5F5F5F5F5F5F5F5F5F5F5F5F5F5F5F5F5F5F5F5F5F5F5F5F5F5F5F5F5F5F5F5F5F5F5F5F5F5F5F5F5F5F5F5F5F5F5F5F5F5F5F5F5F5F5F5F5F5F5F5F5F5F5F5F5F5F5F5F5F5F5F5F5F5F5F5F5F5F5F5F5F5F5F5F5F5F5F5F5F5
310
F5F5F5F5F5F5E2F5F5F5F5F5F5F5F5F5F5F5F5F5F5F5F5E2F5F5F5E2E2EFF5F5F5E2F5F5F5F5F5F5F5F5F5F5F5F5F5F5F5F5E2F5F5F5F5F5F5F5F5F5F5F5F5F5F5F5F5F5F5F5F5F5F5F5F5F5F5F5F5F5F5F5F5F5F5F5F5F5F5F5F5F5F5F5F5F5F5F5F5F5F5F5F5F5F5F5F5F5F5F5F5F5F5F5F5F5F5F5F5F5F5F5F5F5F5F5F5
310
F5F5F5F5F5F5F5F5F5F5F5F5F5F5F5F5F5F5F5F5F5F5F5F5F5F5F5F5F5F5F5F5F5F5F5F5F5F5F5F5F5F5F5F5F5F5F5F5F5F5F5F5F5F5F5F5F5F5F5E2F5F5F5F5F5F5F5F5F5F5F5F5F5F5F5F5E2F5F5F5E2E2EFF5F5F5F5F5F5F5F5F5F5F5F5F5F5F5F5F5F5F5F5E2F5F5F5F5F5F5F5F5F5F5F5F5F5F5F5F5F5F5F5F5F5F5F5
310
F5F5F5F5F5F5F5F5F5F5F5F5F5F5F5F5F5F5F5F5F5F5F5F5F5F5F5F5F5F5F5F5F5F5F5F5F5F5F5F5F5F5F5F5F5F5F5F5F5F5F5F5F5F5F5F5F5F5F5F5F5F5F5F5F5F5F5F5F5F5F5F5F5F5F5F5F5F5F5F5F5F5F5F5F5F5F5F5F5F5F5F5F5F5F5F5F5F5F5F5F5F5F5F5F5F5F5F5F5F5F5F5E2F5F5F5F5F5F5F5F5F5F5F5F5F5F5
310
F5F5F5F5F5F5E2E2EFF5F5F5F5F5F5F5F5F5F5F5F5F5F5F5F5F5F5F5F5E2F5F5F5F5F5F5F5F5F5F5F5F5F5F5F5F5F5F5F5F5F5F5F5F5F5F5F5F5F5F5F5F5F5F5F5F5F5F5F5F5F5F5F5F5F5F5F5F5F5F5F5F5F5F5F5F5F5F5F5F5F5F5F5F5F5F5F5F5F5F5F5F5F5F5F5F5F5F5F5F5F5F5F5F5F5F5F5F5F5F5F5F5F5F5F5F5F5
310
F5F5F5F5F5F5F5F5F5F5F5F5F5F5F5F5F5F5F5F5F5F5F5F5F5F5F5F5F5F5F5F5F5F5F5F5F5F5E2F5F5F5F5F5F5F5F5F5F5F5F5F5F5F5F5F5F5F5F5E2E2EFF5F5F5F5F5F5F5F5F5F5F5F5F5F5F5F5F5F5F5F5E2F5F5F5F5F5F5F5F5F5F5F5F5F5F5F5F5F5F5F5F5F5F5F5F5F5F5F5F5F5F5F5F5F5F5F5F5F5F5F5F5F5F5F5F5
310
F5F5F5F5F5F5F5F5F5F5F5F5F5F5F5F5F5F5F5F5F5F5F5F5F5F5F5F5F5F5F5F5F5F5F5F5F5F5F5F5F5F5F5F5F5F5F5F5F5F5F5F5F5F5F5F5F5F5F5F5F5F5F5F5F5F5F5F5F5F5F5F5F5F5F5F5F5F5F5F5F5F5F5F5F5F5F5F5F5F5F5E2F5F5F5F5F5F5F5F5F5F5F5F5F5F5F5F5F5F5F5F5E2E2EFF5F5F5F5F5F5F5F5F5F5F5F5
310
F5F5F5F5F5F5F5F5E2F5F5F5F5F5F5F5F5F5F5F5F5F5F5F5F5F5F5F5F5F5F5F5F5F5F5F5F5F5F5F5F5F5F5F5F5F5F5F5F5F5F5F5F5F5F5F5F5F5F5F5F5F5F5F5F5F5F5F5F5F5F5F5F5F5F5F5F5F5F5F5F5F5F5F5F5F5F5F5F5F5F5F5F5F5F5F5F5F5F5F5F5F5F5F5F5F5F5F5F5F5F5F5F5F5F5F5F5F5F5F5F5F5F5F5F5F5F5
310
F5F5F5F5F5F5F5F5F5F5F5F5F5F5F5F5F5E2F5F5F5F5F5F5F5F5F5F5F5F5F5F5F5F5F5F5F5F5E2E2EFF5F5F5F5F5F5F5F5F5F5F5F5F5F5F5F5F5F5F5F5E2F5F5F5F5F5F5F5F5F5F5F5F5F5F5F5F5F5F5F5F5F5F5F5F5F5F5F5F5F5F5F5F5F5F5F5F5F5F5F5F5F5F5F5F5F5F5F5F5F5F5F5F5F5F5F5F5F5F5F5F5F5F5F5F5F5
310
F5F5F5F5F5F5F5F5F5F5F5F5F5F5F5F5F5F5F5F5F5F5F5F5F5F5F5F5F5F5F5F5F5F5F5F5F5F5F5F5F5F5F5F5F5F5F5F5F5F5F5F5F5F5F5F5F5F5F5F5F5F5F5F5F5F5F5F5F5F5E2F5F5F5F5F5F5F5F5F5F5F5F5F5F5F5F5F5F5F5F5E2E2EFF5F5F5F5F5F5F5F5F5F5F5F5F5F5F5F5F5F5F5F5E2F5F5F5F5F5F5F5F5F5F5F5F5
310
F5F5F5F5F5F5F5F5F5F5F5F5F5F5F5F5F5F5F5F5F5F5F5F5F5F5F5F5F5F5F5F5F5F5F5F5F5F5F5F5F5F5F5F5F5F5F5F5F5F5F5F5F5F5F5F5F5F5F5F5F5F5F5F5F5F5F5F5F5F5F5F5F5F5F5F5F5F5F5F5F5F5F5F5F5F5F5F5F5F5F5F5F5F5F5F5F5F5F5F5F5F5F5F5F5F5F5F5F5F5F5F5F5F5F5F5F5F5F5F5F5F5F5E2F5F5F5
310
F5F5F5F5F5F5F5F5F5F5F5F5F5F5F5F5F5E2E2EFF5F5F5F5F5F5F5F5F5F5F5F5F5F5F5F5F5F5F5F5E2F5F5F5F5F5F5F5F5F5F5F5F5F5F5F5F5F5F5F5F5F5F5F5F5F5F5F5F5F5F5F5F5F5F5F5F5F5F5F5F5F5F5F5F5F5F5F5F5F5F5F5F5F5F5F5F5F5F5F5F5F5F5F5F5F5F5F5F5F5F5F5F5F5F5F5F5F5F5F5F5F5F5F5F5F5F5
310
F5F5F5F5F5F5F5F5F5F5F5F5F5F5F5F5F5F5F5F5F5F5F5F5F5F5F5F5F5F5F5F5F5F5F5F5F5F5F5F5F5F5F5F5F5F5F5F5F5E2F5F5F5F5F5F5F5F5F5F5F5F5F5F5F5F5F5F5F5F5E2E2EFF5F5F5F5F5F5F5F5F5F5F5F5F5F5F5F5F5F5F5F5E2F5F5F5F5F5F5F5F5F5F5F5F5F5F5F5F5F5F5F5F5F5F5F5F5F5F5F5F5F5F5F5F5F5
310
F5F5F5F5F5F5F5F5F5F5F5F5F5F5F5F5F5F5F5F5F5F5F5F5F5F5F5F5F5F5F5F5F5F5F5F5F5F5F5F5F5F5F5F5F5F5F5F5F5F5F5F5F5F5F5F5F5F5F5F5F5F5F5F5F5F5F5F5F5F5F5F5F5F5F5F5F5F5F5F5F5F5F5F5F5F5F5F5F5F5F5F5F5F5F5F5F5F5F5F5F5F5E2F5F5F5F5F5F5F5F5F5F5F5F5F5F5F5F5F5F5F5F5E2E2EFF5
310
F5F5F5F5F5F5F5F5F5F5F5F5F5F5F5F5F5F5F5E2F5F5F5F5F5F5F5F5F5F5F5F5F5F5F5F5F5F5F5F5F5F5F5F5F5F5F5F5F5F5F5F5F5F5F5F5F5F5F5F5F5F5F5F5F5F5F5F5F5F5F5F5F5F5F5F5F5F5F5F5F5F5F5F5F5F5F5F5F5F5F5F5F5F5F5F5F5F5F5F5F5F5F5F5F5F5F5F5F5F5F5F5F5F5F5F5F5F5F5F5F5F5F5F5F5F5F5
310
F5F5F5F5F5F5F5F5F5F5F5F5F5F5F5F5F5F5F5F5F5F5F5F5F5F5F5F5E2F5F5F5F5F5F5F5F5F5F5F5F5F5F5F5F5F5F5F5F5E2E2EFF5F5F5E2F5F5F5F5F5F5F5F5F5F5F5F5F5F5F5F5E2F5F5F5F5F5F5F5F5F5F5F5F5F5F5F5F5F5F5F5F5F5F5F5F5F5F5F5F5F5F5F5F5F5F5F5F5F5F5F5F5F5F5F5F5F5F5F5F5F5F5F5F5F5F5
310
F5F5F5F5F5F5F5F5F5F5F5F5F5F5F5F5F5F5F5F5F5F5F5F5F5F5F5F5F5F5F5F5F5F5F5F5F5F5F5F5F5F5F5F5F5F5F5F5F5F5F5F5F5F5F5F5F5F5F5F5F5F5F5F5F5F5F5F5F5F5F5F5F5F5F5F5F5F5F5F5F5E2F5F5F5F5F5F5F5F5F5F5F5F5F5F5F5F5E2F5F5F5E2E2EFF5F5F5E2F5F5F5F5F5F5F5F5F5F5F5F5F5F5F5F5E2F5
310
F5F5F5F5F5F5F5F5F5F5F5F5F5F5F5F5F5F5F5F5F5F5F5F5F5F5F5F5F5F5F5F5F5F5F5F5F5F5F5F5F5F5F5F5F5F5F5F5F5F5F5F5F5F5F5F5F5F5F5F5F5F5F5F5F5F5F5F5F5F5F5F5F5F5F5F5F5F5F5F5F5F5F5F5F5F5F5F5F5F5F5F5F5F5F5F5F5F5F5F5F5F5F5F5F5F5F5F5F5F5F5F5F5F5F5F5F5F5F5F5F5F5F5F5F5F5F5
310
F5F5F5F5F5F5F5E2F5F5F5F5F5F5F5F5F5F5F5F5F5F5F5F5E2F5F5F5E2E2EFF5F5F5E2F5F5F5F5F5F5F5F5F5F5F5F5F5F5F5F5E2F5F5F5F5F5F5F5F5F5F5F5F5F5F5F5F5F5F5F5F5F5F5F5F5F5F5F5F5F5F5F5F5F5F5F5F5F5F5F5F5F5F5F5F5F5F5F5F5F5F5F5F5F5F5F5F5F5F5F5F5F5F5F5F5F5F5F5F5F5F5F5F5F5F5F5
310
F5F5F5F5F5F5F5F5F5F5F5F5F5F5F5F5F5F5F5F5F5F5F5F5F5F5F5F5F5F5F5F5F5F5F5F5F5F5F5F5F5F5F5F5F5F5F5F5F5F5F5F5F5F5F5F5F5F5F5F5E2F5F5F5F5F5F5F5F5F5F5F5F5F5F5F5F5E2F5F5F5E2E2EFF5F5F5E2F5F5F5F5F5F5F5F5F5F5F5F5F5F5F5F5E2F5F5F5F5F5F5F5F5F5F5F5F5F5F5F5F5F5F5F5F5F5F5
310
F5F5F5F5F5F5F5F5F5F5F5F5F5F5F5F5F5F5F5F5F5F5F5F5F5F5F5F5F5F5F5F5F5F5F5F5F5F5F5F5F5F5F5F5F5F5F5F5F5F5F5F5F5F5F5F5F5F5F5F5F5F5F5F5F5F5F5F5F5F5F5F5F5F5F5F5F5F5F5F5F5F5F5F5F5F5F5F5F5F5F5F5F5F5F5F5F5F5F5F5F5F5F5F5F5F5F5F5F5F5F5F5F5E2F5F5F5F5F5F5F5F5F5F5F5F5F5
310
F5F5F5E2F5F5F5E2E2EFF5F5F5E2F5F5F5F5F5F5F5F5F5F5F5F5F5F5F5F5E2F5F5F5F5F5F5F5F5F5F5F5F5F5F5F5F5F5F5F5F5F5F5F5F5F5F5F5F5F5F5F5F5F5F5F5F5F5F5F5F5F5F5F5F5F5F5F5F5F5F5F5F5F5F5F5F5F5F5F5F5F5F5F5F5F5F5F5F5F5F5F5F5F5F5F5F5F5F5F5F5F5F5F5F5F5F5F5F5F5F5F5F5F5F5F5F5
310
F5F5F5F5F5F5F5F5F5F5F5F5F5F5F5F5F5F5F5F5F5F5F5F5F5F5F5F5F5F5F5F5F5F5F5F5F5F5F5E2F5F5F5F5F5F5F5F5F5F5F5F5F5F5F5F5E2F5F5F5E2E2EFF5F5F5E2F5F5F5F5F5F5F5F5F5F5F5F5F5F5F5F5E2F5F5F5F5F5F5F5F5F5F5F5F5F5F5F5F5F5F5F5F5F5F5F5F5F5F5F5F5F5F5F5F5F5F5F5F5F5F5F5F5F5F5F5
310
F5F5F5F5F5F5F5F5F5F5F5F5F5F5F5F5F5F5F5F5F5F5F5F5F5F5F5F5F5F5F5F5F5F5F5F5F5F5F5F5F5F5F5F5F5F5F5F5F5F5F5F5F5F5F5F5F5F5F5F5F5F5F5F5F5F5F5F5F5F5F5F5F5F5F5F5F5F5F5F5F5F5F5F5F5F5F5F5F5F5F5F5E2F5F5F5F5F5F5F5F5F5F5F5F5F5F5F5F5E2F5F5F5E2E2EFF5F5F5E2F5F5F5F5F5F5F5
310
F5F5F5F5F5F5F5F5F5E2F5F5F5F5F5F5F5F5F5F5F5F5F5F5F5F5F5F5F5F5F5F5F5F5F5F5F5F5F5F5F5F5F5F5F5F5F5F5F5F5F5F5F5F5F5F5F5F5F5F5F5F5F5F5F5F5F5F5F5F5F5F5F5F5F5F5F5F5F5F5F5F5F5F5F5F5F5F5F5F5F5F5F5F5F5F5F5F5F5F5F5F5F5F5F5F5F5F5F5F5F5F5F5F5F5F5F5F5F5F5F5F5F5F5F5F5F5
310
F5F5F5F5F5F5F5F5F5F5F5F5F5F5F5F5F5F5E2F5F5F5F5F5F5F5F5F5F5F5F5F5F5F5F5E2F5F5F5E2E2EFF5F5F5E2F5F5F5F5F5F5F5F5F5F5F5F5F5F5F5F5E2F5F5F5F5F5F5F5F5F5F5F5F5F5F5F5F5F5F5F5F5F5F5F5F5F5F5F5F5F5F5F5F5F5F5F5F5F5F5F5F5F5F5F5F5F5F5F5F5F5F5F5F5F5F5F5F5F5F5F5F5F5F5F5F5
310
F5F5F5F5F5F5F5F5F5F5F5F5F5F5F5F5F5F5F5F5F5F5F5F5F5F5F5F5F5F5F5F5F5F5F5F5F5F5F5F5F5F5F5F5F5F5F5F5F5F5F5F5F5F5F5F5F5F5F5F5F5F5F5F5F5F5F5F5F5F5F5E2F5F5F5F5F5F5F5F5F5F5F5F5F5F5F5F5E2F5F5F5E2E2EFF5F5F5E2F5F5F5F5F5F5F5F5F5F5F5F5F5F5F5F5E2F5F5F5F5F5F5F5F5F5F5F5
310
F5F5F5F5F5F5F5F5F5F5F5F5F5F5F5F5F5F5F5F5F5F5F5F5F5F5F5F5F5F5F5F5F5F5F5F5F5F5F5F5F5F5F5F5F5F5F5F5F5F5F5F5F5F5F5F5F5F5F5F5F5F5F5F5F5F5F5F5F5F5F5F5F5F5F5F5F5F5F5F5F5F5F5F5F5F5F5F5F5F5F5F5F5F5F5F5F5F5F5F5F5F5F5F5F5F5F5F5F5F5F5F5F5F5F5F5F5F5F5F5F5F5F5F5E2F5F5
310
F5F5F5F5F5F5F5F5F5F5F5F5F5F5E2F5F5F5E2E2EFF5F5F5E2F5F5F5F5F5F5F5F5F5F5F5F5F5F5F5F5E2F5F5F5F5F5F5F5F5F5F5F5F5F5F5F5F5F5F5F5F5F5F5F5F5F5F5F5F5F5F5F5F5F5F5F5F5F5F5F5F5F5F5F5F5F5F5F5F5F5F5F5F5F5F5F5F5F5F5F5F5F5F5F5F5F5F5F5F5F5F5F5F5F5F5F5F5F5F5F5F5F5F5F5F5F5
310
F5F5F5F5F5F5F5F5F5F5F5F5F5F5F5F5F5F5F5F5F5F5F5F5F5F5F5F5F5F5F5F5F5F5F5F5F5F5F5F5F5F5F5F5F5F5F5F5F5F5E2F5F5F5F5F5F5F5F5F5F5F5F5F5F5F5F5E2F5F5F5E2E2EFF5F5F5E2F5F5F5F5F5F5F5F5F5F5F5F5F5F5F5F5E2F5F5F5F5F5F5F5F5F5F5F5F5F5F5F5F5F5F5F5F5F5F5F5F5F5F5F5F5F5F5F5F5
310
F5F5F5F5F5F5F5F5F5F5F5F5F5F5F5F5F5F5F5F5F5F5F5F5F5F5F5F5F5F5F5F5F5F5F5F5F5F5F5F5F5F5F5F5F5F5F5F5F5F5F5F5F5F5F5F5F5F5F5F5F5F5F5F5F5F5F5F5F5F5F5F5F5F5F5F5F5F5F5F5F5F5F5F5F5F5F5F5F5F5F5F5F5F5F5F5F5F5F5F5F5F5F5E2F5F5F5F5F5F5F5F5F5F5F5F5F5F5F5F5E2F5F5F5E2E2EF
310
F5F5F5E2F5F5F5F5F5F5F5F5F5F5F5F5F5F5F5F5E2F5F5F5F5F5F5F5F5F5F5F5F5F5F5F5F5F5F5F5F5F5F5F5F5F5F5F5F5F5F5F5F5F5F5F5F5F5F5F5F5F5F5F5F5F5F5F5F5F5F5F5F5F5F5F5F5F5F5F5F5F5F5F5F5F5F5F5F5F5F5F5F5F5F5F5F5F5F5F5F5F5F5F5F5F5F5F5F5F5F5F5F5F5F5F5F5F5F5F5F5F5F5F5F5F5F5
310
F5F5F5F5F5F5F5F5F5F5F5F5F5F5F5F5F5F5F5F5F5F5F5F5F5F5F5F5F5E2F5F5F5F5F5F5F5F5F5F5F5F5F5F5F5F5E2F5F5F5E2E2EFF5F5F5E2F5F5F5F5F5F5F5F5F5F5F5F5F5F5F5F5E2F5F5F5F5F5F5F5F5F5F5F5F5F5F5F5F5F5F5F5F5F5F5F5F5F5F5F5F5F5F5F5F5F5F5F5F5F5F5F5F5F5F5F5F5F5F5F5F5F5F5F5F5F5
310
F5F5F5F5F5F5F5F5F5F5F5F5F5F5F5F5F5F5F5F5F5F5F5F5F5F5F5F5F5F5F5F5F5F5F5F5F5F5F5F5F5F5F5F5F5F5F5F5F5F5F5F5F5F5F5F5F5F5F5F5F5F5F5F5F5F5F5F5F5F5F5F5F5F5F5F5F5F5F5F5F5F5E2F5F5F5F5F5F5F5F5F5F5F5F5F5F5F5F5E2F5F5F5E2E2EFF5F5F5E2F5F5F5F5F5F5F5F5F5F5F5F5F5F5F5F5E2
310
F5F5F5F5F5F5F5F5F5F5F5F5F5F5F5F5F5F5F5F5F5F5F5F5F5F5F5F5F5F5F5F5F5F5F5F5F5F5F5F5F5F5F5F5F5F5F5F5F5F5F5F5F5F5F5F5F5F5F5F5F5F5F5F5F5F5F5F5F5F5F5F5F5F5F5F5F5F5F5F5F5F5F5F5F5F5F5F5F5F5F5F5F5F5F5F5F5F5F5F5F5F5F5F5F5F5F5F5F5F5F5F5F5F5F5F5F5F5F5F5F5F5F5F5F5F5F5
310
F5F5F5F5F5F5F5F5E2F5F5F5F5F5F5F5F5F5F5F5F5F5F5F5F5E2F5F5F5E2E2EFF5F5F5E2F5F5F5F5F5F5F5F5F5F5F5F5F5F5F5F5E2F5F5F5F5F5F5F5F5F5F5F5F5F5F5F5F5F5F5F5F5F5F5F5F5F5F5F5F5F5F5F5F5F5F5F5F5F5F5F5F5F5F5F5F5F5F5F5F5F5F5F5F5F5F5F5F5F5F5F5F5F5F5F5F5F5F5F5F5F5F5F5F5F5F5
310
F5F5F5F5F5F5F5F5F5F5F5F5F5F5F5F5F5F5F5F5F5F5F5F5F5F5F5F5F5F5F5F5F5F5F5F5F5F5F5F5F5F5F5F5F5F5F5F5F5F5F5F5F5F5F5F5F5F5F5F5F5E2F5F5F5F5F5F5F5F5F5F5F5F5F5F5F5F5E2F5F5F5E2E2EFF5F5F5E2F5F5F5F5F5F5F5F5F5F5F5F5F5F5F5F5E2F5F5F5F5F5F5F5F5F5F5F5F5F5F5F5F5F5F5F5F5F5
310
F5F5F5F5F5F5F5F5F5F5F5F5F5F5F5F5F5F5F5F5F5F5F5F5F5F5F5F5F5F5F5F5F5F5F5F5F5F5F5F5F5F5F5F5F5F5F5F5F5F5F5F5F5F5F5F5F5F5F5F5F5F5F5F5F5F5F5F5F5F5F5F5F5F5F5F5F5F5F5F5F5F5F5F5F5F5F5F5F5F5F5F5F5F5F5F5F5F5F5F5F5F5F5F5F5F5F5F5F5F5F5F5F5F5E2F5F5F5F5F5F5F5F5F5F5F5F5
310
F5F5F5F5E2F5F5F5E2E2EFF5F5F5E2F5F5F5F5F5F5F5F5F5F5F5F5F5F5F5F5E2F5F5F5F5F5F5F5F5F5F5F5F5F5F5F5F5F5F5F5F5F5F5F5F5F5F5F5F5F5F5F5F5F5F5F5F5F5F5F5F5F5F5F5F5F5F5F5F5F5F5F5F5F5F5F5F5F5F5F5F5F5F5F5F5F5F5F5F5F5F5F5F5F5F5F5F5F5F5F5F5F5F5F5F5F5F5F5F5F5F5F5F5F5F5F5
310
F5F5F5F5F5F5F5F5F5F5F5F5F5F5F5F5F5F5F5F5F5F5F5F5F5F5F5F5F5F5F5F5F5F5F5F5F5F5F5F5E2F5F5F5F5F5F5F5F5F5F5F5F5F5F5F5F5E2F5F5F5E2E2EFF5F5F5F5F5F5F5F5F5F5F5F5F5F5F5F5F5F5F5F5E2F5F5F5F5F5F5F5F5F5F5F5F5F5F5F5F5F5F5F5F5F5F5F5F5F5F5F5F5F5F5F5F5F5F5F5F5F5F5F5F5F5F5
310
F5F5F5F5F5F5F5F5F5F5F5F5F5F5F5F5F5F5F5F5F5F5F5F5F5F5F5F5F5F5F5F5F5F5F5F5F5F5F5F5F5F5F5F5F5F5F5F5F5F5F5F5F5F5F5F5F5F5F5F5F5F5F5F5F5F5F5F5F5F5F5F5F5F5F5F5F5F5F5F5F5F5F5F5F5F5F5F5F5F5F5F5F5E2F5F5F5F5F5F5F5F5F5F5F5F5F5F5F5F5F5F5F5F5E2E2EFF5F5F5F5F5F5F5F5F5F5
310
F5F5F5F5F5F5F5F5F5F5E2F5F5F5F5F5F5F5F5F5F5F5F5F5F5F5F5F5F5F5F5F5F5F5F5F5F5F5F5F5F5F5F5F5F5F5F5F5F5F5F5F5F5F5F5F5F5F5F5F5F5F5F5F5F5F5F5F5F5F5F5F5F5F5F5F5F5F5F5F5F5F5F5F5F5F5F5F5F5F5F5F5F5F5F5F5F5F5F5F5F5F5F5F5F5F5F5F5F5F5F5F5F5F5F5F5F5F5F5F5F5F5F5F5F5F5F5
310
F5F5F5F5F5F5F5F5F5F5F5F5F5F5F5F5F5F5F5E2F5F5F5F5F5F5F5F5F5F5F5F5F5F5F5F5F5F5F5F5E2E2EFF5F5F5F5F5F5F5F5F5F5F5F5F5F5F5F5F5F5F5F5E2F5F5F5F5F5F5F5F5F5F5F5F5F5F5F5F5F5F5F5F5F5F5F5F5F5F5F5F5F5F5F5F5F5F5F5F5F5F5F5F5F5F5F5F5F5F5F5F5F5F5F5F5F5F5F5F5F5F5F5F5F5F5F5
310
F5F5F5F5F5F5F5F5F5F5F5F5F5F5F5F5F5F5F5F5F5F5F5F5F5F5F5F5F5F5F5F5F5F5F5F5F5F5F5F5F5F5F5F5F5F5F5F5F5F5F5F5F5F5F5F5F5F5F5F5F5F5F5F5F5F5F5F5F5F5F5F5E2F5F5F5F5F5F5F5F5F5F5F5F5F5F5F5F5F5F5F5F5E2E2EFF5F5F5F5F5F5F5F5F5F5F5F5F5F5F5F5F5F5F5F5E2F5F5F5F5F5F5F5F5F5F5
310
F5F5F5F5F5F5F5F5F5F5F5F5F5F5F5F5F5F5F5F5F5F5F5F5F5F5F5F5F5F5F5F5F5F5F5F5F5F5F5F5F5F5F5F5F5F5F5F5F5F5F5F5F5F5F5F5F5F5F5F5F5F5F5F5F5F5F5F5F5F5F5F5F5F5F5F5F5F5F5F5F5F5F5F5F5F5F5F5F5F5F5F5F5F5F5F5F5F5F5F5F5F5F5F5F5F5F5F5F5F5F5F5F5F5F5F5F5F5F5F5F5F5F5F5F5E2F5
310
F5F5F5F5F5F5F5F5F5F5F5F5F5F5F5F5F5F5F5E2E2EFF5F5F5F5F5F5F5F5F5F5F5F5F5F5F5F5F5F5F5F5E2F5F5F5F5F5F5F5F5F5F5F5F5F5F5F5F5F5F5F5F5F5F5F5F5F5F5F5F5F5F5F5F5F5F5F5F5F5F5F5F5F5F5F5F5F5F5F5F5F5F5F5F5F5F5F5F5F5F5F5F5F5F5F5F5F5F5F5F5F5F5F5F5F5F5F5F5F5F5F5F5F5F5F5F5
310
F5F5F5F5F5F5F5F5F5F5F5F5F5F5F5F5F5F5F5F5F5F5F5F5F5F5F5F5F5F5F5F5F5F5F5F5F5F5F5F5F5F5F5F5F5F5F5F5F5F5F5E2F5F5F5F5F5F5F5F5F5F5F5F5F5F5F5F5F5F5F5F5E2E2EFF5F5F5F5F5F5F5F5F5F5F5F5F5F5F5F5F5F5F5F5E2F5F5F5F5F5F5F5F5F5F5F5F5F5F5F5F5F5F5F5F5F5F5F5F5F5F5F5F5F5F5F5
310
F5F5F5F5F5F5F5F5F5F5F5F5F5F5F5F5F5F5F5F5F5F5F5F5F5F5F5F5F5F5F5F5F5F5F5F5F5F5F5F5F5F5F5F5F5F5F5F5F5F5F5F5F5F5F5F5F5F5F5F5F5F5F5F5F5F5F5F5F5F5F5F5F5F5F5F5F5F5F5F5F5F5F5F5F5F5F5F5F5F5F5F5F5F5F5F5F5F5F5F5F5F5F5F5E2F5F5F5F5F5F5F5F5F5F5F5F5F5F5F5F5F5F5F5F5E2E2
310
EFF5F5F5F5F5F5F5F5F5F5F5F5F5F5F5F5F5F5F5F5E2F5F5F5F5F5F5F5F5F5F5F5F5F5F5F5F5F5F5F5F5F5F5F5F5F5F5F5F5F5F5F5F5F5F5F5F5F5F5F5F5F5F5F5F5F5F5F5F5F5F5F5F5F5F5F5F5F5F5F5F5F5F5F5F5F5F5F5F5F5F5F5F5F5F5F5F5F5F5F5F5F5F5F5F5F5F5F5F5F5F5F5F5F5F5F5F5F5F5F5F5F5F5F5F5F5
310
F5F5F5F5F5F5F5F5F5F5F5F5F5F5F5F5F5F5F5F5F5F5F5F5F5F5F5F5F5F5E2F5F5F5F5F5F5F5F5F5F5F5F5F5F5F5F5F5F5F5F5E2E2EFF5F5F5F5F5F5F5F5F5F5F5F5F5F5F5F5F5F5F5F5E2F5F5F5F5F5F5F5F5F5F5F5F5F5F5F5F5F5F5F5F5F5F5F5F5F5F5F5F5F5F5F5F5F5F5F5F5F5F5F5F5F5F5F5F5F5F5F5F5F5F5F5F5
310
F5F5F5F5F5F5F5F5F5F5F5F5F5F5F5F5F5F5F5F5F5F5F5F5F5F5F5F5F5F5F5F5F5F5F5F5F5F5F5F5F5F5F5F5F5F5F5F5F5F5F5F5F5F5F5F5F5F5F5F5F5F5F5F5F5F5F5F5F5F5F5F5F5F5F5F5F5F5F5F5F5F5F5E2F5F5F5F5F5F5F5F5F5F5F5F5F5F5F5F5F5F5F5F5E2E2EFF5F5F5F5F5F5F5F5F5F5F5F5F5F5F5F5F5F5F5F5
310
E2F5F5F5F5F5F5F5F5F5F5F5F5F5F5F5F5F5F5F5F5F5F5F5F5F5F5F5F5F5F5F5F5F5F5F5F5F5F5F5F5F5F5F5F5F5F5F5F5F5F5F5F5F5F5F5F5F5F5F5F5F5F5F5F5F5F5F5F5F5F5F5F5F5F5F5F5F5F5F5F5F5F5F5F5F5F5F5F5F5F5F5F5F5F5F5F5F5F5F5F5F5F5F5F5F5F5F5F5F5F5F5F5F5F5F5F5F5F5F5F5F5F5F5F5F5F5
310
F5F5F5F5F5F5F5F5F5E2F5F5F5F5F5F5F5F5F5F5F5F5F5F5F5F5F5F5F5F5E2E2EFF5F5F5E2F5F5F5F5F5F5F5F5F5F5F5F5F5F5F5F5E2F5F5F5F5F5F5F5F5F5F5F5F5F5F5F5F5F5F5F5F5F5F5F5F5F5F5F5F5F5F5F5F5F5F5F5F5F5F5F5F5F5F5F5F5F5F5F5F5F5F5F5F5F5F5F5F5F5F5F5F5F5F5F5F5F5F5F5F5F5F5F5F5F5
310
F5F5F5F5F5F5F5F5F5F5F5F5F5F5F5F5F5F5F5F5F5F5F5F5F5F5F5F5F5F5F5F5F5F5F5F5F5F5F5F5F5F5F5F5F5F5F5F5F5F5F5F5F5F5F5F5F5F5F5F5F5F5E2F5F5F5F5F5F5F5F5F5F5F5F5F5F5F5F5E2F5F5F5E2E2EFF5F5F5E2F5F5F5F5F5F5F5F5F5F5F5F5F5F5F5F5E2F5F5F5F5F5F5F5F5F5F5F5F5F5F5F5F5F5F5F5F5
310
F5F5F5F5F5F5F5F5F5F5F5F5F5F5F5F5F5F5F5F5F5F5F5F5F5F5F5F5F5F5F5F5F5F5F5F5F5F5F5F5F5F5F5F5F5F5F5F5F5F5F5F5F5F5F5F5F5F5F5F5F5F5F5F5F5F5F5F5F5F5F5F5F5F5F5F5F5F5F5F5F5F5F5F5F5F5F5F5F5F5F5F5F5F5F5F5F5F5F5F5F5F5F5F5F5F5F5F5F5F5F5F5F5F5F5E2F5F5F5F5F5F5F5F5F5F5F5
310
F5F5F5F5F5E2F5F5F5E2E2EFF5F5F5E2F5F5F5F5F5F5F5F5F5F5F5F5F5F5F5F5E2F5F5F5F5F5F5F5F5F5F5F5F5F5F5F5F5F5F5F5F5F5F5F5F5F5F5F5F5F5F5F5F5F5F5F5F5F5F5F5F5F5F5F5F5F5F5F5F5F5F5F5F5F5F5F5F5F5F5F5F5F5F5F5F5F5F5F5F5F5F5F5F5F5F5F5F5F5F5F5F5F5F5F5F5F5F5F5F5F5F5F5F5F5F5
310
F5F5F5F5F5F5F5F5F5F5F5F5F5F5F5F5F5F5F5F5F5F5F5F5F5F5F5F5F5F5F5F5F5F5F5F5F5F5F5F5F5E2F5F5F5F5F5F5F5F5F5F5F5F5F5F5F5F5E2F5F5F5E2E2EFF5F5F5E2F5F5F5F5F5F5F5F5F5F5F5F5F5F5F5F5E2F5F5F5F5F5F5F5F5F5F5F5F5F5F5F5F5F5F5F5F5F5F5F5F5F5F5F5F5F5F5F5F5F5F5F5F5F5F5F5F5F5
310
F5F5F5F5F5F5F5F5F5F5F5F5F5F5F5F5F5F5F5F5F5F5F5F5F5F5F5F5F5F5F5F5F5F5F5F5F5F5F5F5F5F5F5F5F5F5F5F5F5F5F5F5F5F5F5F5F5F5F5F5F5F5F5F5F5F5F5F5F5F5F5F5F5F5F5F5F5F5F5F5F5F5F5F5F5F5F5F5F5F5F5F5F5F5E2F5F5F5F5F5F5F5F5F5F5F5F5F5F5F5F5E2F5F5F5E2E2EFF5F5F5E2F5F5F5F5F5
310
F5F5F5F5F5F5F5F5F5F5F5E2F5F5F5F5F5F5F5F5F5F5F5F5F5F5F5F5F5F5F5F5F5F5F5F5F5F5F5F5F5F5F5F5F5F5F5F5F5F5F5F5F5F5F5F5F5F5F5F5F5F5F5F5F5F5F5F5F5F5F5F5F5F5F5F5F5F5F5F5F5F5F5F5F5F5F5F5F5F5F5F5F5F5F5F5F5F5F5F5F5F5F5F5F5F5F5F5F5F5F5F5F5F5F5F5F5F5F5F5F5F5F5F5F5F5F5
310
F5F5F5F5F5F5F5F5F5F5F5F5F5F5F5F5F5F5F5F5E2F5F5F5F5F5F5F5F5F5F5F5F5F5F5F5F5E2F5F5F5E2E2EFF5F5F5E2F5F5F5F5F5F5F5F5F5F5F5F5F5F5F5F5E2F5F5F5F5F5F5F5F5F5F5F5F5F5F5F5F5F5F5F5F5F5F5F5F5F5F5F5F5F5F5F5F5F5F5F5F5F5F5F5F5F5F5F5F5F5F5F5F5F5F5F5F5F5F5F5F5F5F5F5F5F5F5
310
F5F5F5F5F5F5F5F5F5F5F5F5F5F5F5F5F5F5F5F5F5F5F5F5F5F5F5F5F5F5F5F5F5F5F5F5F5F5F5F5F5F5F5F5F5F5F5F5F5F5F5F5F5F5F5F5F5F5F5F5F5F5F5F5F5F5F5F5F5F5F5F5F5E2F5F5F5F5F5F5F5F5F5F5F5F5F5F5F5F5E2F5F5F5E2E2EFF5F5F5E2F5F5F5F5F5F5F5F5F5F5F5F5F5F5F5F5E2F5F5F5F5F5F5F5F5F5
310
F5F5F5F5F5F5F5F5F5F5F5F5F5F5F5F5F5F5F5F5F5F5F5F5F5F5F5F5F5F5F5F5F5F5F5F5F5F5F5F5F5F5F5F5F5F5F5F5F5F5F5F5F5F5F5F5F5F5F5F5F5F5F5F5F5F5F5F5F5F5F5F5F5F5F5F5F5F5F5F5F5F5F5F5F5F5F5F5F5F5F5F5F5F5F5F5F5F5F5F5F5F5F5F5F5F5F5F5F5F5F5F5F5F5F5F5F5F5F5F5F5F5F5F5F5F5E2
310
F5F5F5F5F5F5F5F5F5F5F5F5F5F5F5F5E2F5F5F5E2E2EFF5F5F5E2F5F5F5F5F5F5F5F5F5F5F5F5F5F5F5F5E2F5F5F5F5F5F5F5F5F5F5F5F5F5F5F5F5F5F5F5F5F5F5F5F5F5F5F5F5F5F5F5F5F5F5F5F5F5F5F5F5F5F5F5F5F5F5F5F5F5F5F5F5F5F5F5F5F5F5F5F5F5F5F5F5F5F5F5F5F5F5F5F5F5F5F5F5F5F5F5F5F5F5F5
310
F5F5F5F5F5F5F5F5F5F5F5F5F5F5F5F5F5F5F5F5F5F5F5F5F5F5F5F5F5F5F5F5F5F5F5F5F5F5F5F5F5F5F5F5F5F5F5F5F5F5F5F5E2F5F5F5F5F5F5F5F5F5F5F5F5F5F5F5F5E2F5F5F5E2E2EFF5F5F5E2F5F5F5F5F5F5F5F5F5F5F5F5F5F5F5F5E2F5F5F5F5F5F5F5F5F5F5F5F5F5F5F5F5F5F5F5F5F5F5F5F5F5F5F5F5F5F5
310
F5F5F5F5F5F5F5F5F5F5F5F5F5F5F5F5F5F5F5F5F5F5F5F5F5F5F5F5F5F5F5F5F5F5F5F5F5F5F5F5F5F5F5F5F5F5F5F5F5F5F5F5F5F5F5F5F5F5F5F5F5F5F5F5F5F5F5F5F5F5F5F5F5F5F5F5F5F5F5F5F5F5F5F5F5F5F5F5F5F5F5F5F5F5F5F5F5F5F5F5F5F5F5F5F5E2F5F5F5F5F5F5F5F5F5F5F5F5F5F5F5F5E2F5F5F5E2
310
E2EFF5F5F5E2F5F5F5F5F5F5F5F5F5F5F5F5F5F5F5F5E2F5F5F5F5F5F5F5F5F5F5F5F5F5F5F5F5F5F5F5F5F5F5F5F5F5F5F5F5F5F5F5F5F5F5F5F5F5F5F5F5F5F5F5F5F5F5F5F5F5F5F5F5F5F5F5F5F5F5F5F5F5F5F5F5F5F5F5F5F5F5F5F5F5F5F5F5F5F5F5F5F5F5F5F5F5F5F5F5F5F5F5F5F5F5F5F5F5F5F5F5F5F5F5F5
310
F5F5F5F5F5F5F5F5F5F5F5F5F5F5F5F5F5F5F5F5F5F5F5F5F5F5F5F5F5F5F5E2F5F5F5F5F5F5F5F5F5F5F5F5F5F5F5F5E2F5F5F5E2E2EFF5F5F5E2F5F5F5F5F5F5F5F5F5F5F5F5F5F5F5F5E2F5F5F5F5F5F5F5F5F5F5F5F5F5F5F5F5F5F5F5F5F5F5F5F5F5F5F5F5F5F5F5F5F5F5F5F5F5F5F5F5F5F5F5F5F5F5F5F5F5F5F5
310
F5F5F5F5F5F5F5F5F5F5F5F5F5F5F5F5F5F5F5F5F5F5F5F5F5F5F5F5F5F5F5F5F5F5F5F5F5F5F5F5F5F5F5F5F5F5F5F5F5F5F5F5F5F5F5F5F5F5F5F5F5F5F5F5F5F5F5F5F5F5F5F5F5F5F5F5F5F5F5F5F5F5F5F5E2F5F5F5F5F5F5F5F5F5F5F5F5F5F5F5F5E2F5F5F5E2E2EFF5F5F5E2F5F5F5F5F5F5F5F5F5F5F5F5F5F5F5
310
F5E2F5F5F5F5F5F5F5F5F5F5F5F5F5F5F5F5F5F5F5F5F5F5F5F5F5F5F5F5F5F5F5F5F5F5F5F5F5F5F5F5F5F5F5F5F5F5F5F5F5F5F5F5F5F5F5F5F5F5F5F5F5F5F5F5F5F5F5F5F5F5F5F5F5F5F5F5F5F5F5F5F5F5F5F5F5F5F5F5F5F5F5F5F5F5F5F5F5F5F5F5F5F5F5F5F5F5F5F5F5F5F5F5F5F5F5F5F5F5F5F5F5F5F5F5F5
310
F5F5F5F5F5F5F5F5F5F5E2F5F5F5F5F5F5F5F5F5F5F5F5F5F5F5F5E2F5F5F5E2E2EFF5F5F5E2F5F5F5F5F5F5F5F5F5F5F5F5F5F5F5F5E2F5F5F5F5F5F5F5F5F5F5F5F5F5F5F5F5F5F5F5F5F5F5F5F5F5F5F5F5F5F5F5F5F5F5F5F5F5F5F5F5F5F5F5F5F5F5F5F5F5F5F5F5F5F5F5F5F5F5F5F5F5F5F5F5F5F5F5F5F5F5F5F5
310
F5F5F5F5F5F5F5F5F5F5F5F5F5F5F5F5F5F5F5F5F5F5F5F5F5F5F5F5F5F5F5F5F5F5F5F5F5F5F5F5F5F5F5F5F5F5F5F5F5F5F5F5F5F5F5F5F5F5F5F5F5F5F5E2F5F5F5F5F5F5F5F5F5F5F5F5F5F5F5F5E2F5F5F5E2E2EFF5F5F5E2F5F5F5F5F5F5F5F5F5F5F5F5F5F5F5F5E2F5F5F5F5F5F5F5F5F5F5F5F5F5F5F5F5F5F5F5
310
F5F5F5F5F5F5F5F5F5F5F5F5F5F5F5F5F5F5F5F5F5F5F5F5F5F5F5F5F5F5F5F5F5F5F5F5F5F5F5F5F5F5F5F5F5F5F5F5F5F5F5F5F5F5F5F5F5F5F5F5F5F5F5F5F5F5F5F5F5F5F5F5F5F5F5F5F5F5F5F5F5F5F5F5F5F5F5F5F5F5F5F5F5F5F5F5F5F5F5F5F5F5F5F5F5F5F5F5F5F5F5F5F5F5F5F5E2F5F5F5F5F5F5F5F5F5F5
310
F5F5F5F5F5F5E2F5F5F5E2E2EFF5F5F5E2F5F5F5F5F5F5F5F5F5F5F5F5F5F5F5F5E2F5F5F5F5F5F5F5F5F5F5F5F5F5F5F5F5F5F5F5F5F5F5F5F5F5F5F5F5F5F5F5F5F5F5F5F5F5F5F5F5F5F5F5F5F5F5F5F5F5F5F5F5F5F5F5F5F5F5F5F5F5F5F5F5F5F5F5F5F5F5F5F5F5F5F5F5F5F5F5F5F5F5F5F5F5F5F5F5F5F5F5F5F5
310
F5F5F5F5F5F5F5F5F5F5F5F5F5F5F5F5F5F5F5F5F5F5F5F5F5F5F5F5F5F5F5F5F5F5F5F5F5F5F5F5F5F5E2F5F5F5F5F5F5F5F5F5F5F5F5F5F5F5F5E2F5F5F5E2E2EFF5F5F5E2F5F5F5F5F5F5F5F5F5F5F5F5F5F5F5F5E2F5F5F5F5F5F5F5F5F5F5F5F5F5F5F5F5F5F5F5F5F5F5F5F5F5F5F5F5F5F5F5F5F5F5F5F5F5F5F5F5
310
F5F5F5F5F5F5F5F5F5F5F5F5F5F5F5F5F5F5F5F5F5F5F5F5F5F5F5F5F5F5F5F5F5F5F5F5F5F5F5F5F5F5F5F5F5F5F5F5F5F5F5F5F5F5F5F5F5F5F5F5F5F5F5F5F5F5F5F5F5F5F5F5F5F5F5F5F5F5F5F5F5F5F5F5F5F5F5F5F5F5F5F5F5F5F5E2F5F5F5F5F5F5F5F5F5F5F5F5F5F5F5F5E2F5F5F5E2E2EFF5F5F5E2F5F5F5F5
310
F5F5F5F5F5F5F5F5F5F5F5F5E2F5F5F5F5F5F5F5F5F5F5F5F5F5F5F5F5F5F5F5F5F5F5F5F5F5F5F5F5F5F5F5F5F5F5F5F5F5F5F5F5F5F5F5F5F5F5F5F5F5F5F5F5F5F5F5F5F5F5F5F5F5F5F5F5F5F5F5F5F5F5F5F5F5F5F5F5F5F5F5F5F5F5F5F5F5F5F5F5F5F5F5F5F5F5F5F5F5F5F5F5F5F5F5F5F5F5F5F5F5F5F5F5F5F5
310
F5F5F5F5F5F5F5F5F5F5F5F5F5F5F5F5F5F5F5F5F5E2F5F5F5F5F5F5F5F5F5F5F5F5F5F5F5F5E2F5F5F5E2E2EFF5F5F5F5F5F5F5F5F5F5F5F5F5F5F5F5F5F5F5F5E2F5F5F5F5F5F5F5F5F5F5F5F5F5F5F5F5F5F5F5F5F5F5F5F5F5F5F5F5F5F5F5F5F5F5F5F5F5F5F5F5F5F5F5F5F5F5F5F5F5F5F5F5F5F5F5F5F5F5F5F5F5
310
F5F5F5F5F5F5F5F5F5F5F5F5F5F5F5F5F5F5F5F5F5F5F5F5F5F5F5F5F5F5F5F5F5F5F5F5F5F5F5F5F5F5F5F5F5F5F5F5F5F5F5F5F5F5F5F5F5F5F5F5F5F5F5F5F5F5F5F5F5F5F5F5F5F5E2F5F5F5F5F5F5F5F5F5F5F5F5F5F5F5F5F5F5F5F5E2E2EFF5F5F5F5F5F5F5F5F5F5F5F5F5F5F5F5F5F5F5F5E2F5F5F5F5F5F5F5F5
310
F5F5F5F5F5F5F5F5F5F5F5F5F5F5F5F5F5F5F5F5F5F5F5F5F5F5F5F5F5F5F5F5F5F5F5F5F5F5F5F5F5F5F5F5F5F5F5F5F5F5F5F5F5F5F5F5F5F5F5F5F5F5F5F5F5F5F5F5F5F5F5F5F5F5F5F5F5F5F5F5F5F5F5F5F5F5F5F5F5F5F5F5F5F5F5F5F5F5F5F5F5F5F5F5F5F5F5F5F5F5F5F5F5F5F5F5F5F5F5F5F5F5F5F5F5F5F5
310
E2F5F5F5F5F5F5F5F5F5F5F5F5F5F5F5F5F5F5F5F5E2E2EFF5F5F5F5F5F5F5F5F5F5F5F5F5F5F5F5F5F5F5F5E2F5F5F5F5F5F5F5F5F5F5F5F5F5F5F5F5F5F5F5F5F5F5F5F5F5F5F5F5F5F5F5F5F5F5F5F5F5F5F5F5F5F5F5F5F5F5F5F5F5F5F5F5F5F5F5F5F5F5F5F5F5F5F5F5F5F5F5F5F5F5F5F5F5F5F5F5F5F5F5F5F5F5
310
F5F5F5F5F5F5F5F5F5F5F5F5F5F5F5F5F5F5F5F5F5F5F5F5F5F5F5F5F5F5F5F5F5F5F5F5F5F5F5F5F5F5F5F5F5F5F5F5F5F5F5F5F5E2F5F5F5F5F5F5F5F5F5F5F5F5F5F5F5F5F5F5F5F5E2E2EFF5F5F5F5F5F5F5F5F5F5F5F5F5F5F5F5F5F5F5F5E2F5F5F5F5F5F5F5F5F5F5F5F5F5F5F5F5F5F5F5F5F5F5F5F5F5F5F5F5F5
310
F5F5F5F5F5F5F5F5F5F5F5F5F5F5F5F5F5F5F5F5F5F5F5F5F5F5F5F5F5F5F5F5F5F5F5F5F5F5F5F5F5F5F5F5F5F5F5F5F5F5F5F5F5F5F5F5F5F5F5F5F5F5F5F5F5F5F5F5F5F5F5F5F5F5F5F5F5F5F5F5F5F5F5F5F5F5F5F5F5F5F5F5F5F5F5F5F5F5F5F5F5F5F5F5F5F5E2F5F5F5F5F5F5F5F5F5F5F5F5F5F5F5F5F5F5F5F5
310
E2E2EFF5F5F5F5F5F5F5F5F5F5F5F5F5F5F5F5F5F5F5F5E2F5F5F5F5F5F5F5F5F5F5F5F5F5F5F5F5F5F5F5F5F5F5F5F5F5F5F5F5F5F5F5F5F5F5F5F5F5F5F5F5F5F5F5F5F5F5F5F5F5F5F5F5F5F5F5F5F5F5F5F5F5F5F5F5F5F5F5F5F5F5F5F5F5F5F5F5F5F5F5F5F5F5F5F5F5F5F5F5F5F5F5F5F5F5F5F5F5F5F5F5F5F5F5
310
F5F5F5F5F5F5F5F5F5F5F5F5F5F5F5F5F5F5F5F5F5F5F5F5F5F5F5F5F5F5F5F5E2F5F5F5F5F5F5F5F5F5F5F5F5F5F5F5F5F5F5F5F5E2E2EFF5F5F5F5F5F5F5F5F5F5F5F5F5F5F5F5F5F5F5F5E2F5F5F5F5F5F5F5F5F5F5F5F5F5F5F5F5F5F5F5F5F5F5F5F5F5F5F5F5F5F5F5F5F5F5F5F5F5F5F5F5F5F5F5F5F5F5F5F5F5F5
310
F5F5F5F5F5F5F5F5F5F5F5F5F5F5F5F5F5F5F5F5F5F5F5F5F5F5F5F5F5F5F5F5F5F5F5F5F5F5F5F5F5F5F5F5F5F5F5F5F5F5F5F5F5F5F5F5F5F5F5F5F5F5F5F5F5F5F5F5F5F5F5F5F5F5F5F5F5F5F5F5F5F5F5F5F5E2F5F5F5F5F5F5F5F5F5F5F5F5F5F5F5F5F5F5F5F5E2E2EFF5F5F5F5F5F5F5F5F5F5F5F5F5F5F5F5F5F5
310
F5F5E2F5F5F5F5F5F5F5F5F5F5F5F5F5F5F5F5F5F5F5F5F5F5F5F5F5F5F5F5F5F5F5F5F5F5F5F5F5F5F5F5F5F5F5F5F5F5F5F5F5F5F5F5F5F5F5F5F5F5F5F5F5F5F5F5F5F5F5F5F5F5F5F5F5F5F5F5F5F5F5F5F5F5F5F5F5F5F5F5F5F5F5F5F5F5F5F5F5F5F5F5F5F5F5F5F5F5F5F5F5F5F5F5F5F5F5F5F5F5F5F5F5F5F5F5
310
F5F5F5F5F5F5F5F5F5F5F5E2F5F5F5F5F5F5F5F5F5F5F5F5F5F5F5F5F5F5F5F5E2E2EFF5F5F5F5F5F5F5F5F5F5F5F5F5F5F5F5F5F5F5F5E2F5F5F5F5F5F5F5F5F5F5F5F5F5F5F5F5F5F5F5F5F5F5F5F5F5F5F5F5F5F5F5F5F5F5F5F5F5F5F5F5F5F5F5F5F5F5F5F5F5F5F5F5F5F5F5F5F5F5F5F5F5F5F5F5F5F5F5F5F5F5F5
310
F5F5F5F5F5F5F5F5F5F5F5F5F5F5F5F5F5F5F5F5F5F5F5F5F5F5F5F5F5F5F5F5F5F5F5F5F5F5F5F5F5F5F5F5F5F5F5F5F5F5F5F5F5F5F5F5F5F5F5F5F5F5F5F5E2F5F5F5F5F5F5F5F5F5F5F5F5F5F5F5F5F5F5F5F5E2E2EFF5F5F5F5F5F5F5F5F5F5F5F5F5F5F5F5F5F5F5F5E2F5F5F5F5F5F5F5F5F5F5F5F5F5F5F5F5F5F5
310
F5F5F5F5F5F5F5F5F5F5F5F5F5F5F5F5F5F5F5F5F5F5F5F5F5F5F5F5F5F5F5F5F5F5F5F5F5F5F5F5F5F5F5F5F5F5F5F5F5F5F5F5F5F5F5F5F5F5F5F5F5F5F5F5F5F5F5F5F5F5F5F5F5F5F5F5F5F5F5F5F5F5F5F5F5F5F5F5F5F5F5F5F5F5F5F5F5F5F5F5F5F5F5F5F5F5F5F5F5F5F5F5F5F5F5F5F5E2F5F5F5F5F5F5F5F5F5
310
F5F5F5F5F5F5F5F5F5F5F5E2E2EFF5F5F5E2F5F5F5F5F5F5F5F5F5F5F5F5F5F5F5F5E2F5F5F5F5F5F5F5F5F5F5F5F5F5F5F5F5F5F5F5F5F5F5F5F5F5F5F5F5F5F5F5F5F5F5F5F5F5F5F5F5F5F5F5F5F5F5F5F5F5F5F5F5F5F5F5F5F5F5F5F5F5F5F5F5F5F5F5F5F5F5F5F5F5F5F5F5F5F5F5F5F5F5F5F5F5F5F5F5F5F5F5F5
310
F5F5F5F5F5F5F5F5F5F5F5F5F5F5F5F5F5F5F5F5F5F5F5F5F5F5F5F5F5F5F5F5F5F5F5F5F5F5F5F5F5F5F5E2F5F5F5F5F5F5F5F5F5F5F5F5F5F5F5F5E2F5F5F5E2E2EFF5F5F5E2F5F5F5F5F5F5F5F5F5F5F5F5F5F5F5F5E2F5F5F5F5F5F5F5F5F5F5F5F5F5F5F5F5F5F5F5F5F5F5F5F5F5F5F5F5F5F5F5F5F5F5F5F5F5F5F5
310
F5F5F5F5F5F5F5F5F5F5F5F5F5F5F5F5F5F5F5F5F5F5F5F5F5F5F5F5F5F5F5F5F5F5F5F5F5F5F5F5F5F5F5F5F5F5F5F5F5F5F5F5F5F5F5F5F5F5F5F5F5F5F5F5F5F5F5F5F5F5F5F5F5F5F5F5F5F5F5F5F5F5F5F5F5F5F5F5F5F5F5F5F5F5F5F5E2F5F5F5F5F5F5F5F5F5F5F5F5F5F5F5F5E2F5F5F5E2E2EFF5F5F5E2F5F5F5
310
F5F5F5F5F5F5F5F5F5F5F5F5F5E2F5F5F5F5F5F5F5F5F5F5F5F5F5F5F5F5F5F5F5F5F5F5F5F5F5F5F5F5F5F5F5F5F5F5F5F5F5F5F5F5F5F5F5F5F5F5F5F5F5F5F5F5F5F5F5F5F5F5F5F5F5F5F5F5F5F5F5F5F5F5F5F5F5F5F5F5F5F5F5F5F5F5F5F5F5F5F5F5F5F5F5F5F5F5F5F5F5F5F5F5F5F5F5F5F5F5F5F5F5F5F5F5F5
310
F5F5F5F5F5F5F5F5F5F5F5F5F5F5F5F5F5F5F5F5F5F5E2F5F5F5F5F5F5F5F5F5F5F5F5F5F5F5F5E2F5F5F5E2E2EFF5F5F5E2F5F5F5F5F5F5F5F5F5F5F5F5F5F5F5F5E2F5F5F5F5F5F5F5F5F5F5F5F5F5F5F5F5F5F5F5F5F5F5F5F5F5F5F5F5F5F5F5F5F5F5F5F5F5F5F5F5F5F5F5F5F5F5F5F5F5F5F5F5F5F5F5F5F5F5F5F5
310
F5F5F5F5F5F5F5F5F5F5F5F5F5F5F5F5F5F5F5F5F5F5F5F5F5F5F5F5F5F5F5F5F5F5F5F5F5F5F5F5F5F5F5F5F5F5F5F5F5F5F5F5F5F5F5F5F5F5F5F5F5F5F5F5F5F5F5F5F5F5F5F5F5F5F5E2F5F5F5F5F5F5F5F5F5F5F5F5F5F5F5F5E2F5F5F5E2E2EFF5F5F5E2F5F5F5F5F5F5F5F5F5F5F5F5F5F5F5F5E2F5F5F5F5F5F5F5
310
F5F5F5F5F5F5F5F5F5F5F5F5F5F5F5F5F5F5F5F5F5F5F5F5F5F5F5F5F5F5F5F5F5F5F5F5F5F5F5F5F5F5F5F5F5F5F5F5F5F5F5F5F5F5F5F5F5F5F5F5F5F5F5F5F5F5F5F5F5F5F5F5F5F5F5F5F5F5F5F5F5F5F5F5F5F5F5F5F5F5F5F5F5F5F5F5F5F5F5F5F5F5F5F5F5F5F5F5F5F5F5F5F5F5F5F5F5F5F5F5F5F5F5F5F5F5F5
310
F5E2F5F5F5F5F5F5F5F5F5F5F5F5F5F5F5F5E2F5F5F5E2E2EFF5F5F5E2F5F5F5F5F5F5F5F5F5F5F5F5F5F5F5F5E2F5F5F5F5F5F5F5F5F5F5F5F5F5F5F5F5F5F5F5F5F5F5F5F5F5F5F5F5F5F5F5F5F5F5F5F5F5F5F5F5F5F5F5F5F5F5F5F5F5F5F5F5F5F5F5F5F5F5F5F5F5F5F5F5F5F5F5F5F5F5F5F5F5F5F5F5F5F5F5F5F5
310
F5F5F5F5F5F5F5F5F5F5F5F5F5F5F5F5F5F5F5F5F5F5F5F5F5F5F5F5F5F5F5F5F5F5F5F5F5F5F5F5F5F5F5F5F5F5F5F5F5F5F5F5F5F5E2F5F5F5F5F5F5F5F5F5F5F5F5F5F5F5F5E2F5F5F5E2E2EFF5F5F5E2F5F5F5F5F5F5F5F5F5F5F5F5F5F5F5F5E2F5F5F5F5F5F5F5F5F5F5F5F5F5F5F5F5F5F5F5F5F5F5F5F5F5F5F5F5
310
F5F5F5F5F5F5F5F5F5F5F5F5F5F5F5F5F5F5F5F5F5F5F5F5F5F5F5F5F5F5F5F5F5F5F5F5F5F5F5F5F5F5F5F5F5F5F5F5F5F5F5F5F5F5F5F5F5F5F5F5F5F5F5F5F5F5F5F5F5F5F5F5F5F5F5F5F5F5F5F5F5F5F5F5F5F5F5F5F5F5F5F5F5F5F5F5F5F5F5F5F5F5F5F5F5F5F5E2F5F5F5F5F5F5F5F5F5F5F5F5F5F5F5F5E2F5F5
310
F5E2E2EFF5F5F5E2F5F5F5F5F5F5F5F5F5F5F5F5F5F5F5F5E2F5F5F5F5F5F5F5F5F5F5F5F5F5F5F5F5F5F5F5F5F5F5F5F5F5F5F5F5F5F5F5F5F5F5F5F5F5F5F5F5F5F5F5F5F5F5F5F5F5F5F5F5F5F5F5F5F5F5F5F5F5F5F5F5F5F5F5F5F5F5F5F5F5F5F5F5F5F5F5F5F5F5F5F5F5F5F5F5F5F5F5F5F5F5F5F5F5F5F5F5F5F5
310
F5F5F5F5F5F5F5F5F5F5F5F5F5F5F5F5F5F5F5F5F5F5F5F5F5F5F5F5F5F5F5F5F5E2F5F5F5F5F5F5F5F5F5F5F5F5F5F5F5F5E2F5F5F5E2E2EFF5F5F5E2F5F5F5F5F5F5F5F5F5F5F5F5F5F5F5F5E2F5F5F5F5F5F5F5F5F5F5F5F5F5F5F5F5F5F5F5F5F5F5F5F5F5F5F5F5F5F5F5F5F5F5F5F5F5F5F5F5F5F5F5F5F5F5F5F5F5
310
F5F5F5F5F5F5F5F5F5F5F5F5F5F5F5F5F5F5F5F5F5F5F5F5F5F5F5F5F5F5F5F5F5F5F5F5F5F5F5F5F5F5F5F5F5F5F5F5F5F5F5F5F5F5F5F5F5F5F5F5F5F5F5F5F5F5F5F5F5F5F5F5F5F5F5F5F5F5F5F5F5F5F5F5F5F5E2F5F5F5F5F5F5F5F5F5F5F5F5F5F5F5F5E2F5F5F5E2E2EFF5F5F5E2F5F5F5F5F5F5F5F5F5F5F5F5F5
310
F5F5F5E2F5F5F5F5F5F5F5F5F5F5F5F5F5F5F5F5F5F5F5F5F5F5F5F5F5F5F5F5F5F5F5F5F5F5F5F5F5F5F5F5F5F5F5F5F5F5F5F5F5F5F5F5F5F5F5F5F5F5F5F5F5F5F5F5F5F5F5F5F5F5F5F5F5F5F5F5F5F5F5F5F5F5F5F5F5F5F5F5F5F5F5F5F5F5F5F5F5F5F5F5F5F5F5F5F5F5F5F5F5F5F5F5F5F5F5F5F5F5F5F5F5F5F5
310
F5F5F5F5F5F5F5F5F5F5F5F5E2F5F5F5F5F5F5F5F5F5F5F5F5F5F5F5F5E2F5F5F5E2E2EFF5F5F5E2F5F5F5F5F5F5F5F5F5F5F5F5F5F5F5F5E2F5F5F5F5F5F5F5F5F5F5F5F5F5F5F5F5F5F5F5F5F5F5F5F5F5F5F5F5F5F5F5F5F5F5F5F5F5F5F5F5F5F5F5F5F5F5F5F5F5F5F5F5F5F5F5F5F5F5F5F5F5F5F5F5F5F5F5F5F5F5
310
F5F5F5F5F5F5F5F5F5F5F5F5F5F5F5F5F5F5F5F5F5F5F5F5F5F5F5F5F5F5F5F5F5F5F5F5F5F5F5F5F5F5F5F5F5F5F5F5F5F5F5F5F5F5F5F5F5F5F5F5F5F5F5F5F5E2F5F5F5F5F5F5F5F5F5F5F5F5F5F5F5F5E2F5F5F5E2E2EFF5F5F5E2F5F5F5F5F5F5F5F5F5F5F5F5F5F5F5F5E2F5F5F5F5F5F5F5F5F5F5F5F5F5F5F5F5F5
310
F5F5F5F5F5F5F5F5F5F5F5F5F5F5F5F5F5F5F5F5F5F5F5F5F5F5F5F5F5F5F5F5F5F5F5F5F5F5F5F5F5F5F5F5F5F5F5F5F5F5F5F5F5F5F5F5F5F5F5F5F5F5F5F5F5F5F5F5F5F5F5F5F5F5F5F5F5F5F5F5F5F5F5F5F5F5F5F5F5F5F5F5F5F5F5F5F5F5F5F5F5F5F5F5F5F5F5F5F5F5F5F5F5F5F5F5F5F5E2F5F5F5F5F5F5F5F5
310
F5F5F5F5F5F5F5F5E2F5F5F5E2E2EFF5F5F5E2F5F5F5F5F5F5F5F5F5F5F5F5F5F5F5F5E2F5F5F5F5F5F5F5F5F5F5F5F5F5F5F5F5F5F5F5F5F5F5F5F5F5F5F5F5F5F5F5F5F5F5F5F5F5F5F5F5F5F5F5F5F5F5F5F5F5F5F5F5F5F5F5F5F5F5F5F5F5F5F5F5F5F5F5F5F5F5F5F5F5F5F5F5F5F5F5F5F5F5F5F5F5F5F5F5F5F5F5
310
F5F5F5F5F5F5F5F5F5F5F5F5F5F5F5F5F5F5F5F5F5F5F5F5F5F5F5F5F5F5F5F5F5F5F5F5F5F5F5F5F5F5F5F5E2F5F5F5F5F5F5F5F5F5F5F5F5F5F5F5F5E2F5F5F5E2E2EFF5F5F5E2F5F5F5F5F5F5F5F5F5F5F5F5F5F5F5F5E2F5F5F5F5F5F5F5F5F5F5F5F5F5F5F5F5F5F5F5F5F5F5F5F5F5F5F5F5F5F5F5F5F5F5F5F5F5F5
310
F5F5F5F5F5F5F5F5F5F5F5F5F5F5F5F5F5F5F5F5F5F5F5F5F5F5F5F5F5F5F5F5F5F5F5F5F5F5F5F5F5F5F5F5F5F5F5F5F5F5F5F5F5F5F5F5F5F5F5F5F5F5F5F5F5F5F5F5F5F5F5F5F5F5F5F5F5F5F5F5F5F5F5F5F5F5F5F5F5F5F5F5F5F5F5F5F5E2F5F5F5F5F5F5F5F5F5F5F5F5F5F5F5F5E2F5F5F5E2E2EFF5F5F5E2F5F5
310
F5F5F5F5F5F5F5F5F5F5F5F5F5F5E2F5F5F5F5F5F5F5F5F5F5F5F5F5F5F5F5F5F5F5F5F5F5F5F5F5F5F5F5F5F5F5F5F5F5F5F5F5F5F5F5F5F5F5F5F5F5F5F5F5F5F5F5F5F5F5F5F5F5F5F5F5F5F5F5F5F5F5F5F5F5F5F5F5F5F5F5F5F5F5F5F5F5F5F5F5F5F5F5F5F5F5F5F5F5F5F5F5F5F5F5F5F5F5F5F5F5F5F5F5F5F5F5
310
F5F5F5F5F5F5F5F5F5F5F5F5F5F5F5F5F5F5F5F5F5F5F5E2F5F5F5F5F5F5F5F5F5F5F5F5F5F5F5F5E2F5F5F5E2E2EFF5F5F5E2F5F5F5F5F5F5F5F5F5F5F5F5F5F5F5F5E2F5F5F5F5F5F5F5F5F5F5F5F5F5F5F5F5F5F5F5F5F5F5F5F5F5F5F5F5F5F5F5F5F5F5F5F5F5F5F5F5F5F5F5F5F5F5F5F5F5F5F5F5F5F5F5F5F5F5F5
310
F5F5F5F5F5F5F5F5F5F5F5F5F5F5F5F5F5F5F5F5F5F5F5F5F5F5F5F5F5F5F5F5F5F5F5F5F5F5F5F5F5F5F5F5F5F5F5F5F5F5F5F5F5F5F5F5F5F5F5F5F5F5F5F5F5F5F5F5F5F5F5F5F5F5F5F5E2F5F5F5F5F5F5F5F5F5F5F5F5F5F5F5F5E2F5F5F5E2E2EFF5F5F5E2F5F5F5F5F5F5F5F5F5F5F5F5F5F5F5F5E2F5F5F5F5F5F5
310
F5F5F5F5F5F5F5F5F5F5F5F5F5F5F5F5F5F5F5F5F5F5F5F5F5F5F5F5F5F5F5F5F5F5F5F5F5F5F5F5F5F5F5F5F5F5F5F5F5F5F5F5F5F5F5F5F5F5F5F5F5F5F5F5F5F5F5F5F5F5F5F5F5F5F5F5F5F5F5F5F5F5F5F5F5F5F5F5F5F5F5F5F5F5F5F5F5F5F5F5F5F5F5F5F5F5F5F5F5F5F5F5F5F5F5F5F5F5F5F5F5F5F5F5F5F5F5
310
F5F5E2F5F5F5F5F5F5F5F5F5F5F5F5F5F5F5F5E2F5F5F5E2E2EFF5F5F5F5F5F5F5F5F5F5F5F5F5F5F5F5F5F5F5F5E2F5F5F5F5F5F5F5F5F5F5F5F5F5F5F5F5F5F5F5F5F5F5F5F5F5F5F5F5F5F5F5F5F5F5F5F5F5F5F5F5F5F5F5F5F5F5F5F5F5F5F5F5F5F5F5F5F5F5F5F5F5F5F5F5F5F5F5F5F5F5F5F5F5F5F5F5F5F5F5F5
310
F5F5F5F5F5F5F5F5F5F5F5F5F5F5F5F5F5F5F5F5F5F5F5F5F5F5F5F5F5F5F5F5F5F5F5F5F5F5F5F5F5F5F5F5F5F5F5F5F5F5F5F5F5F5F5E2F5F5F5F5F5F5F5F5F5F5F5F5F5F5F5F5F5F5F5F5E2E2EFF5F5F5F5F5F5F5F5F5F5F5F5F5F5F5F5F5F5F5F5E2F5F5F5F5F5F5F5F5F5F5F5F5F5F5F5F5F5F5F5F5F5F5F5F5F5F5F5
310
F5F5F5F5F5F5F5F5F5F5F5F5F5F5F5F5F5F5F5F5F5F5F5F5F5F5F5F5F5F5F5F5F5F5F5F5F5F5F5F5F5F5F5F5F5F5F5F5F5F5F5F5F5F5F5F5F5F5F5F5F5F5F5F5F5F5F5F5F5F5F5F5F5F5F5F5F5F5F5F5F5F5F5F5F5F5F5F5F5F5F5F5F5F5F5F5F5F5F5F5F5F5F5F5F5F5F5F5E2F5F5F5F5F5F5F5F5F5F5F5F5F5F5F5F5F5F5
310
F5F5E2E2EFF5F5F5F5F5F5F5F5F5F5F5F5F5F5F5F5F5F5F5F5E2F5F5F5F5F5F5F5F5F5F5F5F5F5F5F5F5F5F5F5F5F5F5F5F5F5F5F5F5F5F5F5F5F5F5F5F5F5F5F5F5F5F5F5F5F5F5F5F5F5F5F5F5F5F5F5F5F5F5F5F5F5F5F5F5F5F5F5F5F5F5F5F5F5F5F5F5F5F5F5F5F5F5F5F5F5F5F5F5F5F5F5F5F5F5F5F5F5F5F5F5F5
310
F5F5F5F5F5F5F5F5F5F5F5F5F5F5F5F5F5F5F5F5F5F5F5F5F5F5F5F5F5F5F5F5F5F5E2F5F5F5F5F5F5F5F5F5F5F5F5F5F5F5F5F5F5F5F5E2E2EFF5F5F5F5F5F5F5F5F5F5F5F5F5F5F5F5F5F5F5F5E2F5F5F5F5F5F5F5F5F5F5F5F5F5F5F5F5F5F5F5F5F5F5F5F5F5F5F5F5F5F5F5F5F5F5F5F5F5F5F5F5F5F5F5F5F5F5F5F5
310
F5F5F5F5F5F5F5F5F5F5F5F5F5F5F5F5F5F5F5F5F5F5F5F5F5F5F5F5F5F5F5F5F5F5F5F5F5F5F5F5F5F5F5F5F5F5F5F5F5F5F5F5F5F5F5F5F5F5F5F5F5F5F5F5F5F5F5F5F5F5F5F5F5F5F5F5F5F5F5F5F5F5F5F5F5F5F5E2F5F5F5F5F5F5F5F5F5F5F5F5F5F5F5F5F5F5F5F5E2E2EFF5F5F5F5F5F5F5F5F5F5F5F5F5F5F5F5
310
F5F5F5F5E2E2E2E2E2E2E2E2E2E2E2E2E2E2E2E2E2E2E2E2E2E2E2E2E2E2E2E2E2E2E2E2E2E2E2E2E2E2E2E2E2E2E2E2E2E2E2E2E2E2E2E2E2E2E2E2E2E2E2E2E2E2E2E2E2E2E2E2E2E2E2E2E2E2E2E2E2E2E2E2E2E2E2E2E2E2E2E2E2E2E2E2E2E2E2E2E2E2E2E2E2E2E2E2E2E2E2E2E2E2E2E2E2E2E2E2E2E2E2E2E2E2E2
310
E2E2E2E2E2E2E2E2E2E2E2E2E2E2F5F5F5F5F5F5F5F5F5F5F5F5F5F5F5F5F5F5F5F5E2E2EFF5F5F5F5F5F5F5F5F5F5F5F5F5F5F5F5F5F5F5F5F5F5F5F5F5F5F5F5F5F5F5F5F5F5F5F5F5F5F5F5F5F5F5F5F5F5F5F5F5F5F5F5F5F5F5F5F5F5F5F5F5F5F5F5F5F5F5F5F5F5F5F5F5F5F5F5F5F5F5F5F5F5F5F5F5F5F5F5F5F5
310
F5F5F5F5F5F5F5F5F5F5F5F5F5F5F5F5F5F5F5F5F5F5F5F5F5F5F5F5F5F5F5F5F5F5F5F5F5F5F5F5F5F5F5F5F5F5F5F5F5F5F5F5F5F5F5F5F5F5F5F5F5F5F5F5F5F5F5F5F5F5F5F5F5F5F5F5F5F5F5F5F5F5F5F5F5F5F5E2E2EFF5F5F5F5F5F5F5F5F5F5F5F5F5F5F5F5F5F5F5F5F5F5F5F5F5F5F5F5F5F5F5F5F5F5F5F5F5
310
F5F5F5F5F5F5F5F5F5F5F5F5F5F5F5F5F5F5F5F5F5F5F5F5F5F5F5F5F5F5F5F5F5F5F5F5F5F5F5F5F5F5F5F5F5F5F5F5F5F5F5F5F5F5F5F5F5F5F5F5F5F5F5F5F5F5F5F5F5F5F5F5F5F5F5F5F5F5F5F5F5F5F5F5F5F5F5F5F5F5F5F5F5F5F5F5F5F5F5F5F5F5F5F5F5F5F5F5F5F5F5F5F5F5F5F5F5F5F5F5F5F5F5F5F5F5F5
310
F5F5F5F5F5F5F5F5F5F5F5F5F5E2E2EFF5F5F5F5F5F5F5F5F5F5F5F5F5F5F5F5F5F5F5F5F5F5F5F5F5F5F5F5F5F5F5F5F5F5F5F5F5F5F5F5F5F5F5F5F5F5F5F5F5F5F5F5F5F5F5F5F5F5F5F5F5F5F5F5F5F5F5F5F5F5F5F5F5F5F5F5F5F5F5F5F5F5F5F5F5F5F5F5F5F5F5F5F5F5F5F5F5F5F5F5F5F5F5F5F5F5F5F5F5F5F5
310
F5F5F5F5F5F5F5F5F5F5F5F5F5F5F5F5F5F5F5F5F5F5F5F5F5F5F5F5F5F5F5F5F5F5F5F5F5F5F5F5F5F5F5F5F5F5F5F5F5F5F5F5F5F5F5F5F5F5F5F5F5F5F5F5F5F5E2E2EFF5F5F5F5F5F5F5F5F5F5F5F5F5F5F5F5F5F5F5F5F5F5F5F5F5F5F5F5F5F5F5F5F5F5F5F5F5F5F5F5F5F5F5F5F5F5F5F5F5F5F5F5F5F5F5F5F5F5
310
F5F5F5F5F5F5F5F5F5F5F5F5F5F5F5F5F5F5F5F5F5F5F5F5F5F5F5F5F5F5F5F5F5F5F5F5F5F5F5F5F5F5F5F5F5F5F5F5F5F5F5F5F5F5F5F5F5F5F5F5F5F5F5F5F5F5F5F5F5F5F5F5F5F5F5F5F5F5F5F5F5F5F5F5F5F5F5F5F5F5F5F5F5F5F5F5F5F5F5F5F5F5F5F5F5F5F5F5F5F5F5F5F5F5F5F5F5F5F5E2E2EFF5F5F5E2F5
310
F5F5F5F5F5F5F5F5F5F5F5F5F5F5F5F5F5F5F5F5F5F5F5F5F5F5F5F5F5F5F5F5F5F5F5F5F5F5F5F5F5F5F5F5F5F5F5F5F5F5F5F5F5F5F5F5F5F5F5F5F5F5F5F5F5F5F5F5F5F5F5F5F5F5F5F5F5F5F5F5F5F5F5F5F5F5F5F5F5F5F5F5F5F5F5F5F5F5F5F5F5F5F5F5F5F5F5F5F5F5F5F5F5F5F5F5F5F5F5F5F5F5F5F5F5F5F5
310
F5F5F5F5F5F5F5F5F5F5F5F5F5F5F5F5F5F5F5F5F5F5F5F5F5F5F5F5F5F5F5F5F5F5F5F5F5F5F5F5F5E2F5F5F5E2E2EFF5F5F5E2F5F5F5F5F5F5F5F5F5F5F5F5F5F5F5F5F5F5F5F5F5F5F5F5F5F5F5F5F5F5F5F5F5F5F5F5F5F5F5F5F5F5F5F5F5F5F5F5F5F5F5F5F5F5F5F5F5F5F5F5F5F5F5F5F5F5F5F5F5F5F5F5F5F5F5
310
F5F5F5F5F5F5F5F5F5F5F5F5F5F5F5F5F5F5F5F5F5F5F5F5F5F5F5F5F5F5F5F5F5F5F5F5F5F5F5F5F5F5F5F5F5F5F5F5F5F5F5F5F5F5F5F5F5F5F5F5F5F5F5F5F5F5F5F5F5F5F5F5F5F5F5F5F5F5F5F5F5F5F5F5F5F5F5F5F5F5F5F5F5F5E2F5F5F5E2E2EFF5F5F5E2F5F5F5F5F5F5F5F5F5F5F5F5F5F5F5F5F5F5F5F5F5F5
310
F5F5F5F5F5F5F5F5F5F5F5F5F5F5F5F5F5F5F5F5F5F5F5F5F5F5F5F5F5F5F5F5F5F5F5F5F5F5F5F5F5F5F5F5F5F5F5F5F5F5F5F5F5F5F5F5F5F5F5F5F5F5F5F5F5F5F5F5F5F5F5F5F5F5F5F5F5F5F5F5F5F5F5F5F5F5F5F5F5F5F5F5F5F5F5F5F5F5F5F5F5F5F5F5F5F5F5F5F5F5F5F5F5F5F5F5F5F5F5F5F5F5F5F5F5F5F5
310
F5F5F5F5F5F5F5F5F5F5F5F5F5F5F5F5F5F5F5F5E2F5F5F5E2E2EFF5F5F5E2F5F5F5F5F5F5F5F5F5F5F5F5F5F5F5F5F5F5F5F5F5F5F5F5F5F5F5F5F5F5F5F5F5F5F5F5F5F5F5F5F5F5F5F5F5F5F5F5F5F5F5F5F5F5F5F5F5F5F5F5F5F5F5F5F5F5F5F5F5F5F5F5F5F5F5F5F5F5F5F5F5F5F5F5F5F5F5F5F5F5F5F5F5F5F5F5
310
F5F5F5F5F5F5F5F5F5F5F5F5F5F5F5F5F5F5F5F5F5F5F5F5F5F5F5F5F5F5F5F5F5F5F5F5F5F5F5F5F5F5F5F5F5F5F5F5F5F5F5F5F5F5F5F5F5F5F5F5F5F5F5F5F5F5F5F5F5F5F5F5F5E2F5F5F5E2E2EFF5F5F5E2F5F5F5F5F5F5F5F5F5F5F5F5F5F5F5F5F5F5F5F5F5F5F5F5F5F5F5F5F5F5F5F5F5F5F5F5F5F5F5F5F5F5F5
310
F5F5F5F5F5F5F5F5F5F5F5F5F5F5F5F5F5F5F5F5F5F5F5F5F5F5F5F5F5F5F5F5F5F5F5F5F5F5F5F5F5F5F5F5F5F5F5F5F5F5F5F5F5F5F5F5F5F5F5F5F5F5F5F5F5F5F5F5F5F5F5F5F5F5F5F5F5F5F5F5F5F5F5F5F5F5F5F5F5F5F5F5F5F5F5F5F5F5F5F5F5F5F5F5F5F5F5F5F5F5F5F5F5F5F5F5F5F5F5F5F5F5F5F5F5F5E2
310
F5F5F5E2E2EFF5F5F5E2F5F5F5F5F5F5F5F5F5F5F5F5F5F5F5F5F5F5F5F5F5F5F5F5F5F5F5F5F5F5F5F5F5F5F5F5F5F5F5F5F5F5F5F5F5F5F5F5F5F5F5F5F5F5F5F5F5F5F5F5F5F5F5F5F5F5F5F5F5F5F5F5F5F5F5F5F5F5F5F5F5F5F5F5F5F5F5F5F5F5F5F5F5F5F5F5F5F5F5F5F5F5F5F5F5F5F5F5F5F5F5F5F5F5F5F5F5
310
F5F5F5F5F5F5F5F5F5F5F5F5F5F5F5F5F5F5F5F5F5F5F5F5F5F5F5F5F5F5F5F5F5F5F5F5F5F5F5F5F5F5F5F5F5F5F5F5F5F5F5F5E2F5F5F5E2E2EFF5F5F5E2F5F5F5F5F5F5F5F5F5F5F5F5F5F5F5F5F5F5F5F5F5F5F5F5F5F5F5F5F5F5F5F5F5F5F5F5F5F5F5F5F5F5F5F5F5F5F5F5F5F5F5F5F5F5F5F5F5F5F5F5F5F5F5F5
310
F5F5F5F5F5F5F5F5F5F5F5F5F5F5F5F5F5F5F5F5F5F5F5F5F5F5F5F5F5F5F5F5F5F5F5F5F5F5F5F5F5F5F5F5F5F5F5F5F5F5F5F5F5F5F5F5F5F5F5F5F5F5F5F5F5F5F5F5F5F5F5F5F5F5F5F5F5F5F5F5F5F5F5F5F5F5F5F5F5F5F5F5F5F5F5F5F5F5F5F5F5F5F5F5F5E2F5F5F5E2E2EFF5F5F5E2F5F5F5F5F5F5F5F5F5F5F5
310
F5F5F5F5F5F5F5F5F5F5F5F5F5F5F5F5F5F5F5F5F5F5F5F5F5F5F5F5F5F5F5F5F5F5F5F5F5F5F5F5F5F5F5F5F5F5F5F5F5F5F5F5F5F5F5F5F5F5F5F5F5F5F5F5F5F5F5F5F5F5F5F5F5F5F5F5F5F5F5F5F5F5F5F5F5F5F5F5F5F5F5F5F5F5F5F5F5F5F5F5F5F5F5F5F5F5F5F5F5F5F5F5F5F5F5F5F5F5F5F5F5F5F5F5F5F5F5
310
F5F5F5F5F5F5F5F5F5F5F5F5F5F5F5F5F5F5F5F5F5F5F5F5F5F5F5F5F5F5F5E2F5F5F5E2E2EFF5F5F5E2E2E2E2E2E2E2E2F5F5F5F5F5F5F5F5F5E2E2E2E2E2E2E2E2E2E2E2E2E2E2E2E2F5F5F5F5F5F5F5F5E2E2E2E2E2E2E2E2E2E2E2E2E2E2E2E2F5F5F5F5F5F5F5F5F5E2E2E2E2E2E2E2E2E2E2E2E2E2E2E2F5F5F5F5F5
310
F5F5F5F5E2E2E2E2E2E2E2E2E2E2E2E2E2E2E2F5F5F5F5F5F5F5F5F5E2E2E2E2E2E2E2E2E2E2E2E2E2E2E2E2F5F5F5F5F5F5F5F5E2E2E2E2E2E2E2E2E2E2E2E2E2E2E2E2F5F5F5F5F5F5F5F5F5E2E2E2E2E2E2E2E2F5F5F5E2E2EFF5F5F5F5F5F5F5F5F5F5F5F5F5F5F5F5F5F5F5F5F5F5F5F5F5F5F5F5F5F5F5F5F5F5F5F5
310
F5F5F5F5F5F5F5F5F5F5F5F5F5F5F5F5F5F5F5F5F5F5F5F5F5F5F5F5F5F5F5F5F5F5F5F5F5F5F5F5F5F5F5F5F5F5F5F5F5F5F5F5F5F5F5F5F5F5F5F5F5F5F5F5F5F5F5F5F5F5F5F5F5F5F5F5F5F5F5F5F5F5F5F5F5F5F5F5F5F5F5F5F5F5F5F5F5F5F5F5F5F5F5F5F5F5F5F5F5F5F5F5F5F5F5F5F5F5F5F5F5F5F5F5F5F5F5
310
F5F5F5F5F5F5F5F5F5F5F5F5F5F5E2E2EFF5F5F5F5F5F5F5F5F5F5F5F5F5F5F5F5F5F5F5F5F5F5F5F5F5F5F5F5F5F5F5F5F5F5F5F5F5F5F5F5F5F5F5F5F5F5F5F5F5F5F5F5F5F5F5F5F5F5F5F5F5F5F5F5F5F5F5F5F5F5F5F5F5F5F5F5F5F5F5F5F5F5F5F5F5F5F5F5F5F5F5F5F5F5F5F5F5F5F5F5F5F5F5F5F5F5F5F5F5F5
310
F5F5F5F5F5F5F5F5F5F5F5F5F5F5F5F5F5F5F5F5F5F5F5F5F5F5F5F5F5F5F5F5F5F5F5F5F5F5F5F5F5F5F5F5F5F5F5F5F5F5F5F5F5F5F5F5F5F5F5F5F5F5F5F5F5F5F5E2EFEFF5F5F5F5F5F5F5F5F5F5F5F5F5F5F5F5F5F5F5F5F5F5F5F5F5F5F5F5F5F5F5F5F5F5F5F5F5F5F5F5F5F5F5F5F5F5F5F5F5F5F5F5F5F5F5F5F5
310
F5F5F5F5F5F5F5F5F5F5F5F5F5F5F5F5F5F5F5F5F5F5F5F5F5F5F5F5F5F5F5F5F5F5F5F5F5F5F5F5F5F5F5F5F5F5F5F5F5F5F5F5F5F5F5F5F5F5F5F5F5F5F5F5F5F5F5F5F5F5F5F5F5F5F5F5F5F5F5F5F5F5F5F5F5F5F5F5F5F5F5F5F5F5F5F5F5F5F5F5F5F5F5F5F5F5F5F5F5F5F5F5F5F5F5F5F5F5F5F5E2EFEFE2E2E2E2
310
E2E2E2E2E2E2E2E2E2E2E2E2E2E2E2E2E2E2E2E2E2E2E2E2E2E2E2E2E2E2E2E2E2E2E2E2E2E2E2E2E2E2E2E2E2E2E2E2E2E2E2E2E2E2E2E2E2E2E2E2E2E2E2E2E2E2E2E2E2E2E2E2E2E2E2E2E2E2E2E2E2E2E2E2E2E2E2E2E2E2E2E2E2E2E2E2E2E2E2E2E2E2E2E2E2E2E2E2E2E2E2E2E2E2E2E2E2E2E2E2E2E2E2E2E2E2E2
310
E2E2E2E2E2E2E2E2E2E2E2E2E2E2E2E2E2E2E2E2E2E2E2E2E2E2E2E2E2E2E2E2E2E2E2E2E2E2E2E2E2E2E2E2E2E2E2EFEF
  0
XRECORD
  5
2B90
102
{ACAD_REACTORS
330
2B8F
102
}
330
2B8F
100
AcDbXrecord
280
     1
102
SHADEPLOT
 70
     0
102
SHADEPLOTRESLEVEL
 70
     2
102
SHADEPLOTCUSTOMDPI
 70
   300
  0
XRECORD
  5
2A66
102
{ACAD_REACTORS
330
2A11
102
}
330
2A11
100
AcDbXrecord
280
     1
102
MATERIAL
148
0.0
149
0.0
149
0.0
 93
        0
 94
      127
282
     0
 72
     0
 77
     0
171
     0
175
     0
179
     0
273
     0
  0
XRECORD
  5
2A12
102
{ACAD_REACTORS
330
2A11
102
}
330
2A11
100
AcDbXrecord
280
     1
270
     1
271
     1
  0
XRECORD
  5
2A13
102
{ACAD_REACTORS
330
2A11
102
}
330
2A11
100
AcDbXrecord
280
     1
270
     1
271
     1
  0
XRECORD
  5
2A14
102
{ACAD_REACTORS
330
2A11
102
}
330
2A11
100
AcDbXrecord
280
     1
270
     1
271
     1
  0
XRECORD
  5
2A15
102
{ACAD_REACTORS
330
2A11
102
}
330
2A11
100
AcDbXrecord
280
     1
270
     1
271
     1
  0
XRECORD
  5
2A16
102
{ACAD_REACTORS
330
2A11
102
}
330
2A11
100
AcDbXrecord
280
     1
270
     1
271
     1
  0
XRECORD
  5
2A17
102
{ACAD_REACTORS
330
2A11
102
}
330
2A11
100
AcDbXrecord
280
     1
270
     1
271
     1
  0
XRECORD
  5
2A65
102
{ACAD_REACTORS
330
2A09
102
}
330
2A09
100
AcDbXrecord
280
     1
102
MATERIAL
148
0.0
149
0.0
149
0.0
 93
        0
 94
      127
282
     0
 72
     0
 77
     0
171
     0
175
     0
179
     0
273
     0
  0
XRECORD
  5
2A0A
102
{ACAD_REACTORS
330
2A09
102
}
330
2A09
100
AcDbXrecord
280
     1
270
     1
271
     1
  0
XRECORD
  5
2A0B
102
{ACAD_REACTORS
330
2A09
102
}
330
2A09
100
AcDbXrecord
280
     1
270
     1
271
     1
  0
XRECORD
  5
2A0C
102
{ACAD_REACTORS
330
2A09
102
}
330
2A09
100
AcDbXrecord
280
     1
270
     1
271
     1
  0
XRECORD
  5
2A0D
102
{ACAD_REACTORS
330
2A09
102
}
330
2A09
100
AcDbXrecord
280
     1
270
     1
271
     1
  0
XRECORD
  5
2A0E
102
{ACAD_REACTORS
330
2A09
102
}
330
2A09
100
AcDbXrecord
280
     1
270
     1
271
     1
  0
XRECORD
  5
2A0F
102
{ACAD_REACTORS
330
2A09
102
}
330
2A09
100
AcDbXrecord
280
     1
270
     1
271
     1
  0
XRECORD
  5
2A5F
102
{ACAD_REACTORS
330
29DF
102
}
330
29DF
100
AcDbXrecord
280
     1
102
MATERIAL
148
0.0
149
0.0
149
0.0
 93
        0
 94
      127
282
     0
 72
     0
 77
     0
171
     0
175
     0
179
     0
273
     0
  0
XRECORD
  5
29E0
102
{ACAD_REACTORS
330
29DF
102
}
330
29DF
100
AcDbXrecord
280
     1
270
     1
271
     1
  0
XRECORD
  5
29E1
102
{ACAD_REACTORS
330
29DF
102
}
330
29DF
100
AcDbXrecord
280
     1
270
     1
271
     1
  0
XRECORD
  5
29E2
102
{ACAD_REACTORS
330
29DF
102
}
330
29DF
100
AcDbXrecord
280
     1
270
     1
271
     1
  0
XRECORD
  5
29E3
102
{ACAD_REACTORS
330
29DF
102
}
330
29DF
100
AcDbXrecord
280
     1
270
     1
271
     1
  0
XRECORD
  5
29E4
102
{ACAD_REACTORS
330
29DF
102
}
330
29DF
100
AcDbXrecord
280
     1
270
     1
271
     1
  0
XRECORD
  5
29E5
102
{ACAD_REACTORS
330
29DF
102
}
330
29DF
100
AcDbXrecord
280
     1
270
     1
271
     1
  0
CELLSTYLEMAP
  5
2B8C
102
{ACAD_REACTORS
330
2A5B
102
}
330
2A5B
100
AcDbCellStyleMap
 90
        3
300
CELLSTYLE
  1
TABLEFORMAT_BEGIN
 90
        5
170
     1
 91
        0
 92
    32768
 62
   257
 93
        1
300
CONTENTFORMAT
  1
CONTENTFORMAT_BEGIN
 90
        0
 91
        0
 92
        4
 93
        0
300

 40
0.0
140
1.0
 94
        5
 62
     0
340
29F5
144
0.25
309
CONTENTFORMAT_END
171
     1
301
MARGIN
  1
CELLMARGIN_BEGIN
 40
0.06
 40
0.06
 40
0.06
 40
0.06
 40
0.18
 40
0.18
309
CELLMARGIN_END
 94
        6
 95
        1
302
GRIDFORMAT
  1
GRIDFORMAT_BEGIN
 90
        0
 91
        1
 62
     0
 92
       -2
340
0
 93
        0
 40
0.045
309
GRIDFORMAT_END
 95
        2
302
GRIDFORMAT
  1
GRIDFORMAT_BEGIN
 90
        0
 91
        1
 62
     0
 92
       -2
340
0
 93
        0
 40
0.045
309
GRIDFORMAT_END
 95
        4
302
GRIDFORMAT
  1
GRIDFORMAT_BEGIN
 90
        0
 91
        1
 62
     0
 92
       -2
340
0
 93
        0
 40
0.045
309
GRIDFORMAT_END
 95
        8
302
GRIDFORMAT
  1
GRIDFORMAT_BEGIN
 90
        0
 91
        1
 62
     0
 92
       -2
340
0
 93
        0
 40
0.045
309
GRIDFORMAT_END
 95
       16
302
GRIDFORMAT
  1
GRIDFORMAT_BEGIN
 90
        0
 91
        1
 62
     0
 92
       -2
340
0
 93
        0
 40
0.045
309
GRIDFORMAT_END
 95
       32
302
GRIDFORMAT
  1
GRIDFORMAT_BEGIN
 90
        0
 91
        1
 62
     0
 92
       -2
340
0
 93
        0
 40
0.045
309
GRIDFORMAT_END
309
TABLEFORMAT_END
  1
CELLSTYLE_BEGIN
 90
        1
 91
        1
300
_TITLE
309
CELLSTYLE_END
300
CELLSTYLE
  1
TABLEFORMAT_BEGIN
 90
        5
170
     1
 91
        0
 92
        0
 62
   257
 93
        1
300
CONTENTFORMAT
  1
CONTENTFORMAT_BEGIN
 90
        0
 91
        0
 92
        4
 93
        0
300

 40
0.0
140
1.0
 94
        5
 62
     0
340
29F5
144
0.18
309
CONTENTFORMAT_END
171
     1
301
MARGIN
  1
CELLMARGIN_BEGIN
 40
0.06
 40
0.06
 40
0.06
 40
0.06
 40
0.18
 40
0.18
309
CELLMARGIN_END
 94
        6
 95
        1
302
GRIDFORMAT
  1
GRIDFORMAT_BEGIN
 90
        0
 91
        1
 62
     0
 92
       -2
340
0
 93
        0
 40
0.045
309
GRIDFORMAT_END
 95
        2
302
GRIDFORMAT
  1
GRIDFORMAT_BEGIN
 90
        0
 91
        1
 62
     0
 92
       -2
340
0
 93
        0
 40
0.045
309
GRIDFORMAT_END
 95
        4
302
GRIDFORMAT
  1
GRIDFORMAT_BEGIN
 90
        0
 91
        1
 62
     0
 92
       -2
340
0
 93
        0
 40
0.045
309
GRIDFORMAT_END
 95
        8
302
GRIDFORMAT
  1
GRIDFORMAT_BEGIN
 90
        0
 91
        1
 62
     0
 92
       -2
340
0
 93
        0
 40
0.045
309
GRIDFORMAT_END
 95
       16
302
GRIDFORMAT
  1
GRIDFORMAT_BEGIN
 90
        0
 91
        1
 62
     0
 92
       -2
340
0
 93
        0
 40
0.045
309
GRIDFORMAT_END
 95
       32
302
GRIDFORMAT
  1
GRIDFORMAT_BEGIN
 90
        0
 91
        1
 62
     0
 92
       -2
340
0
 93
        0
 40
0.045
309
GRIDFORMAT_END
309
TABLEFORMAT_END
  1
CELLSTYLE_BEGIN
 90
        2
 91
        1
300
_HEADER
309
CELLSTYLE_END
300
CELLSTYLE
  1
TABLEFORMAT_BEGIN
 90
        5
170
     1
 91
        0
 92
        0
 62
   257
 93
        1
300
CONTENTFORMAT
  1
CONTENTFORMAT_BEGIN
 90
        0
 91
        0
 92
        4
 93
        0
300

 40
0.0
140
1.0
 94
        2
 62
     0
340
29F5
144
0.18
309
CONTENTFORMAT_END
171
     1
301
MARGIN
  1
CELLMARGIN_BEGIN
 40
0.06
 40
0.06
 40
0.06
 40
0.06
 40
0.18
 40
0.18
309
CELLMARGIN_END
 94
        6
 95
        1
302
GRIDFORMAT
  1
GRIDFORMAT_BEGIN
 90
        0
 91
        1
 62
     0
 92
       -2
340
0
 93
        0
 40
0.045
309
GRIDFORMAT_END
 95
        2
302
GRIDFORMAT
  1
GRIDFORMAT_BEGIN
 90
        0
 91
        1
 62
     0
 92
       -2
340
0
 93
        0
 40
0.045
309
GRIDFORMAT_END
 95
        4
302
GRIDFORMAT
  1
GRIDFORMAT_BEGIN
 90
        0
 91
        1
 62
     0
 92
       -2
340
0
 93
        0
 40
0.045
309
GRIDFORMAT_END
 95
        8
302
GRIDFORMAT
  1
GRIDFORMAT_BEGIN
 90
        0
 91
        1
 62
     0
 92
       -2
340
0
 93
        0
 40
0.045
309
GRIDFORMAT_END
 95
       16
302
GRIDFORMAT
  1
GRIDFORMAT_BEGIN
 90
        0
 91
        1
 62
     0
 92
       -2
340
0
 93
        0
 40
0.045
309
GRIDFORMAT_END
 95
       32
302
GRIDFORMAT
  1
GRIDFORMAT_BEGIN
 90
        0
 91
        1
 62
     0
 92
       -2
340
0
 93
        0
 40
0.045
309
GRIDFORMAT_END
309
TABLEFORMAT_END
  1
CELLSTYLE_BEGIN
 90
        3
 91
        2
300
_DATA
309
CELLSTYLE_END
  0
XRECORD
  5
2B94
102
{ACAD_REACTORS
330
2A5B
102
}
330
2A5B
100
AcDbXrecord
280
     1
102
ACAD_ROUNDTRIP_PRE2007_TABLESTYLE
 90
        4
 91
        0
  1

 92
        4
 93
        0
  2

 94
        4
 95
        0
  3

  0
XRECORD
  5
2B93
102
{ACAD_REACTORS
330
2B92
102
}
330
2B92
100
AcDbXrecord
280
     1
102
RTVSPropertyOp0
 70
     1
102
RTVSPropertyOp1
 70
     1
102
RTVSPropertyOp2
 70
     1
102
RTVSPropertyOp3
 70
     1
102
RTVSPropertyOp4
 70
     1
102
RTVSPropertyOp5
 70
     1
102
RTVSPropertyOp6
 70
     1
102
RTVSPropertyOp7
 70
     1
102
RTVSPropertyOp8
 70
     1
102
RTVSPropertyOp9
 70
     1
102
RTVSPropertyOp10
 70
     1
102
RTVSPropertyOp11
 70
     1
102
RTVSPropertyOp12
 70
     1
102
RTVSPropertyOp13
 70
     1
102
RTVSPropertyOp14
 70
     1
102
RTVSPropertyOp15
 70
     1
102
RTVSPropertyOp16
 70
     1
102
RTVSPropertyOp17
 70
     1
102
RTVSPropertyOp18
 70
     1
102
RTVSPropertyOp19
 70
     1
102
RTVSPropertyOp20
 70
     1
102
RTVSPropertyOp21
 70
     1
102
RTVSPropertyOp22
 70
     1
102
RTVSPropertyOp23
 70
     1
102
RTVSPropertyOp24
 70
     1
102
RTVSPropertyOp25
 70
     1
102
RTVSPropertyOp26
 70
     1
102
RTVSPropertyOp27
 70
     1
  0
XRECORD
  5
2BA4
102
{ACAD_REACTORS
330
2BA3
102
}
330
2BA3
100
AcDbXrecord
280
     1
102
RTVSPropertyOp0
 70
     1
102
RTVSPropertyOp1
 70
     1
102
RTVSPropertyOp2
 70
     1
102
RTVSPropertyOp3
 70
     1
102
RTVSPropertyOp4
 70
     1
102
RTVSPropertyOp5
 70
     1
102
RTVSPropertyOp6
 70
     1
102
RTVSPropertyOp7
 70
     1
102
RTVSPropertyOp8
 70
     1
102
RTVSPropertyOp9
 70
     1
102
RTVSPropertyOp10
 70
     1
102
RTVSPropertyOp11
 70
     1
102
RTVSPropertyOp12
 70
     1
102
RTVSPropertyOp13
 70
     1
102
RTVSPropertyOp14
 70
     1
102
RTVSPropertyOp15
 70
     1
102
RTVSPropertyOp16
 70
     1
102
RTVSPropertyOp17
 70
     1
102
RTVSPropertyOp18
 70
     1
102
RTVSPropertyOp19
 70
     1
102
RTVSPropertyOp20
 70
     1
102
RTVSPropertyOp21
 70
     1
102
RTVSPropertyOp22
 70
     1
102
RTVSPropertyOp23
 70
     1
102
RTVSPropertyOp24
 70
     1
102
RTVSPropertyOp25
 70
     1
102
RTVSPropertyOp26
 70
     1
102
RTVSPropertyOp27
 70
     1
  0
XRECORD
  5
2B98
102
{ACAD_REACTORS
330
2B97
102
}
330
2B97
100
AcDbXrecord
280
     1
102
RTVSPropertyOp0
 70
     1
102
RTVSPropertyOp1
 70
     1
102
RTVSPropertyOp2
 70
     1
102
RTVSPropertyOp3
 70
     1
102
RTVSPropertyOp4
 70
     1
102
RTVSPropertyOp5
 70
     1
102
RTVSPropertyOp6
 70
     1
102
RTVSPropertyOp7
 70
     1
102
RTVSPropertyOp8
 70
     1
102
RTVSPropertyOp9
 70
     1
102
RTVSPropertyOp10
 70
     1
102
RTVSPropertyOp11
 70
     1
102
RTVSPropertyOp12
 70
     1
102
RTVSPropertyOp13
 70
     1
102
RTVSPropertyOp14
 70
     1
102
RTVSPropertyOp15
 70
     1
102
RTVSPropertyOp16
 70
     1
102
RTVSPropertyOp17
 70
     1
102
RTVSPropertyOp18
 70
     1
102
RTVSPropertyOp19
 70
     1
102
RTVSPropertyOp20
 70
     1
102
RTVSPropertyOp21
 70
     1
102
RTVSPropertyOp22
 70
     1
102
RTVSPropertyOp23
 70
     1
102
RTVSPropertyOp24
 70
     1
102
RTVSPropertyOp25
 70
     1
102
RTVSPropertyOp26
 70
     1
102
RTVSPropertyOp27
 70
     1
  0
XRECORD
  5
2BA2
102
{ACAD_REACTORS
330
2BA1
102
}
330
2BA1
100
AcDbXrecord
280
     1
102
RTVSPropertyOp0
 70
     1
102
RTVSPropertyOp1
 70
     1
102
RTVSPropertyOp2
 70
     1
102
RTVSPropertyOp3
 70
     1
102
RTVSPropertyOp4
 70
     1
102
RTVSPropertyOp5
 70
     1
102
RTVSPropertyOp6
 70
     1
102
RTVSPropertyOp7
 70
     1
102
RTVSPropertyOp8
 70
     1
102
RTVSPropertyOp9
 70
     1
102
RTVSPropertyOp10
 70
     1
102
RTVSPropertyOp11
 70
     1
102
RTVSPropertyOp12
 70
     1
102
RTVSPropertyOp13
 70
     1
102
RTVSPropertyOp14
 70
     1
102
RTVSPropertyOp15
 70
     1
102
RTVSPropertyOp16
 70
     1
102
RTVSPropertyOp17
 70
     1
102
RTVSPropertyOp18
 70
     1
102
RTVSPropertyOp19
 70
     1
102
RTVSPropertyOp20
 70
     1
102
RTVSPropertyOp21
 70
     1
102
RTVSPropertyOp22
 70
     1
102
RTVSPropertyOp23
 70
     1
102
RTVSPropertyOp24
 70
     1
102
RTVSPropertyOp25
 70
     1
102
RTVSPropertyOp26
 70
     1
102
RTVSPropertyOp27
 70
     1
  0
XRECORD
  5
2BAA
102
{ACAD_REACTORS
330
2BA9
102
}
330
2BA9
100
AcDbXrecord
280
     1
102
RTVSPropertyOp0
 70
     1
102
RTVSPropertyOp1
 70
     1
102
RTVSPropertyOp2
 70
     1
102
RTVSPropertyOp3
 70
     1
102
RTVSPropertyOp4
 70
     1
102
RTVSPropertyOp5
 70
     1
102
RTVSPropertyOp6
 70
     1
102
RTVSPropertyOp7
 70
     1
102
RTVSPropertyOp8
 70
     1
102
RTVSPropertyOp9
 70
     1
102
RTVSPropertyOp10
 70
     1
102
RTVSPropertyOp11
 70
     1
102
RTVSPropertyOp12
 70
     1
102
RTVSPropertyOp13
 70
     1
102
RTVSPropertyOp14
 70
     1
102
RTVSPropertyOp15
 70
     1
102
RTVSPropertyOp16
 70
     1
102
RTVSPropertyOp17
 70
     1
102
RTVSPropertyOp18
 70
     1
102
RTVSPropertyOp19
 70
     1
102
RTVSPropertyOp20
 70
     1
102
RTVSPropertyOp21
 70
     1
102
RTVSPropertyOp22
 70
     1
102
RTVSPropertyOp23
 70
     1
102
RTVSPropertyOp24
 70
     1
102
RTVSPropertyOp25
 70
     1
102
RTVSPropertyOp26
 70
     1
102
RTVSPropertyOp27
 70
     1
  0
XRECORD
  5
2BB2
102
{ACAD_REACTORS
330
2BB1
102
}
330
2BB1
100
AcDbXrecord
280
     1
102
RTVSPropertyOp0
 70
     1
102
RTVSPropertyOp1
 70
     1
102
RTVSPropertyOp2
 70
     1
102
RTVSPropertyOp3
 70
     1
102
RTVSPropertyOp4
 70
     1
102
RTVSPropertyOp5
 70
     1
102
RTVSPropertyOp6
 70
     1
102
RTVSPropertyOp7
 70
     1
102
RTVSPropertyOp8
 70
     1
102
RTVSPropertyOp9
 70
     1
102
RTVSPropertyOp10
 70
     1
102
RTVSPropertyOp11
 70
     1
102
RTVSPropertyOp12
 70
     1
102
RTVSPropertyOp13
 70
     1
102
RTVSPropertyOp14
 70
     1
102
RTVSPropertyOp15
 70
     1
102
RTVSPropertyOp16
 70
     1
102
RTVSPropertyOp17
 70
     1
102
RTVSPropertyOp18
 70
     1
102
RTVSPropertyOp19
 70
     1
102
RTVSPropertyOp20
 70
     1
102
RTVSPropertyOp21
 70
     1
102
RTVSPropertyOp22
 70
     1
102
RTVSPropertyOp23
 70
     1
102
RTVSPropertyOp24
 70
     1
102
RTVSPropertyOp25
 70
     1
102
RTVSPropertyOp26
 70
     1
102
RTVSPropertyOp27
 70
     1
  0
XRECORD
  5
2BA6
102
{ACAD_REACTORS
330
2BA5
102
}
330
2BA5
100
AcDbXrecord
280
     1
102
RTVSPropertyOp0
 70
     1
102
RTVSPropertyOp1
 70
     1
102
RTVSPropertyOp2
 70
     1
102
RTVSPropertyOp3
 70
     1
102
RTVSPropertyOp4
 70
     1
102
RTVSPropertyOp5
 70
     1
102
RTVSPropertyOp6
 70
     1
102
RTVSPropertyOp7
 70
     1
102
RTVSPropertyOp8
 70
     1
102
RTVSPropertyOp9
 70
     1
102
RTVSPropertyOp10
 70
     1
102
RTVSPropertyOp11
 70
     1
102
RTVSPropertyOp12
 70
     1
102
RTVSPropertyOp13
 70
     1
102
RTVSPropertyOp14
 70
     1
102
RTVSPropertyOp15
 70
     1
102
RTVSPropertyOp16
 70
     1
102
RTVSPropertyOp17
 70
     1
102
RTVSPropertyOp18
 70
     1
102
RTVSPropertyOp19
 70
     1
102
RTVSPropertyOp20
 70
     1
102
RTVSPropertyOp21
 70
     1
102
RTVSPropertyOp22
 70
     1
102
RTVSPropertyOp23
 70
     1
102
RTVSPropertyOp24
 70
     1
102
RTVSPropertyOp25
 70
     1
102
RTVSPropertyOp26
 70
     1
102
RTVSPropertyOp27
 70
     1
  0
XRECORD
  5
2BA8
102
{ACAD_REACTORS
330
2BA7
102
}
330
2BA7
100
AcDbXrecord
280
     1
102
RTVSPropertyOp0
 70
     1
102
RTVSPropertyOp1
 70
     1
102
RTVSPropertyOp2
 70
     1
102
RTVSPropertyOp3
 70
     1
102
RTVSPropertyOp4
 70
     1
102
RTVSPropertyOp5
 70
     1
102
RTVSPropertyOp6
 70
     1
102
RTVSPropertyOp7
 70
     1
102
RTVSPropertyOp8
 70
     1
102
RTVSPropertyOp9
 70
     1
102
RTVSPropertyOp10
 70
     1
102
RTVSPropertyOp11
 70
     1
102
RTVSPropertyOp12
 70
     1
102
RTVSPropertyOp13
 70
     1
102
RTVSPropertyOp14
 70
     1
102
RTVSPropertyOp15
 70
     1
102
RTVSPropertyOp16
 70
     1
102
RTVSPropertyOp17
 70
     1
102
RTVSPropertyOp18
 70
     1
102
RTVSPropertyOp19
 70
     1
102
RTVSPropertyOp20
 70
     1
102
RTVSPropertyOp21
 70
     1
102
RTVSPropertyOp22
 70
     1
102
RTVSPropertyOp23
 70
     1
102
RTVSPropertyOp24
 70
     1
102
RTVSPropertyOp25
 70
     1
102
RTVSPropertyOp26
 70
     1
102
RTVSPropertyOp27
 70
     1
  0
XRECORD
  5
2BB8
102
{ACAD_REACTORS
330
2BB7
102
}
330
2BB7
100
AcDbXrecord
280
     1
102
RTVSPropertyOp0
 70
     0
102
RTVSPropertyOp1
 70
     0
102
RTVSPropertyOp2
 70
     0
102
RTVSPropertyOp3
 70
     0
102
RTVSPropertyOp4
 70
     0
102
RTVSPropertyOp5
 70
     0
102
RTVSPropertyOp6
 70
     0
102
RTVSPropertyOp7
 70
     0
102
RTVSPropertyOp8
 70
     0
102
RTVSPropertyOp9
 70
     0
102
RTVSPropertyOp10
 70
     0
102
RTVSPropertyOp11
 70
     0
102
RTVSPropertyOp12
 70
     0
102
RTVSPropertyOp13
 70
     0
102
RTVSPropertyOp14
 70
     2
102
RTVSPropertyOp15
 70
     0
102
RTVSPropertyOp16
 70
     0
102
RTVSPropertyOp17
 70
     0
102
RTVSPropertyOp18
 70
     0
102
RTVSPropertyOp19
 70
     0
102
RTVSPropertyOp20
 70
     0
102
RTVSPropertyOp21
 70
     0
102
RTVSPropertyOp22
 70
     0
102
RTVSPropertyOp23
 70
     0
102
RTVSPropertyOp24
 70
     0
102
RTVSPropertyOp25
 70
     0
102
RTVSPropertyOp26
 70
     0
102
RTVSPropertyOp27
 70
     0
  0
XRECORD
  5
2BB0
102
{ACAD_REACTORS
330
2BAF
102
}
330
2BAF
100
AcDbXrecord
280
     1
102
RTVSPropertyOp0
 70
     1
102
RTVSPropertyOp1
 70
     1
102
RTVSPropertyOp2
 70
     1
102
RTVSPropertyOp3
 70
     1
102
RTVSPropertyOp4
 70
     1
102
RTVSPropertyOp5
 70
     1
102
RTVSPropertyOp6
 70
     1
102
RTVSPropertyOp7
 70
     1
102
RTVSPropertyOp8
 70
     1
102
RTVSPropertyOp9
 70
     1
102
RTVSPropertyOp10
 70
     1
102
RTVSPropertyOp11
 70
     1
102
RTVSPropertyOp12
 70
     1
102
RTVSPropertyOp13
 70
     1
102
RTVSPropertyOp14
 70
     1
102
RTVSPropertyOp15
 70
     1
102
RTVSPropertyOp16
 70
     1
102
RTVSPropertyOp17
 70
     1
102
RTVSPropertyOp18
 70
     1
102
RTVSPropertyOp19
 70
     1
102
RTVSPropertyOp20
 70
     1
102
RTVSPropertyOp21
 70
     1
102
RTVSPropertyOp22
 70
     1
102
RTVSPropertyOp23
 70
     1
102
RTVSPropertyOp24
 70
     1
102
RTVSPropertyOp25
 70
     1
102
RTVSPropertyOp26
 70
     1
102
RTVSPropertyOp27
 70
     1
  0
XRECORD
  5
2B9A
102
{ACAD_REACTORS
330
2B99
102
}
330
2B99
100
AcDbXrecord
280
     1
102
RTVSPropertyOp0
 70
     1
102
RTVSPropertyOp1
 70
     1
102
RTVSPropertyOp2
 70
     1
102
RTVSPropertyOp3
 70
     1
102
RTVSPropertyOp4
 70
     1
102
RTVSPropertyOp5
 70
     1
102
RTVSPropertyOp6
 70
     1
102
RTVSPropertyOp7
 70
     1
102
RTVSPropertyOp8
 70
     1
102
RTVSPropertyOp9
 70
     1
102
RTVSPropertyOp10
 70
     1
102
RTVSPropertyOp11
 70
     1
102
RTVSPropertyOp12
 70
     1
102
RTVSPropertyOp13
 70
     1
102
RTVSPropertyOp14
 70
     1
102
RTVSPropertyOp15
 70
     1
102
RTVSPropertyOp16
 70
     1
102
RTVSPropertyOp17
 70
     1
102
RTVSPropertyOp18
 70
     1
102
RTVSPropertyOp19
 70
     1
102
RTVSPropertyOp20
 70
     1
102
RTVSPropertyOp21
 70
     1
102
RTVSPropertyOp22
 70
     1
102
RTVSPropertyOp23
 70
     1
102
RTVSPropertyOp24
 70
     1
102
RTVSPropertyOp25
 70
     1
102
RTVSPropertyOp26
 70
     1
102
RTVSPropertyOp27
 70
     1
  0
XRECORD
  5
2B9C
102
{ACAD_REACTORS
330
2B9B
102
}
330
2B9B
100
AcDbXrecord
280
     1
102
RTVSPropertyOp0
 70
     1
102
RTVSPropertyOp1
 70
     1
102
RTVSPropertyOp2
 70
     1
102
RTVSPropertyOp3
 70
     1
102
RTVSPropertyOp4
 70
     1
102
RTVSPropertyOp5
 70
     1
102
RTVSPropertyOp6
 70
     1
102
RTVSPropertyOp7
 70
     1
102
RTVSPropertyOp8
 70
     1
102
RTVSPropertyOp9
 70
     1
102
RTVSPropertyOp10
 70
     1
102
RTVSPropertyOp11
 70
     1
102
RTVSPropertyOp12
 70
     1
102
RTVSPropertyOp13
 70
     1
102
RTVSPropertyOp14
 70
     1
102
RTVSPropertyOp15
 70
     1
102
RTVSPropertyOp16
 70
     1
102
RTVSPropertyOp17
 70
     1
102
RTVSPropertyOp18
 70
     1
102
RTVSPropertyOp19
 70
     1
102
RTVSPropertyOp20
 70
     1
102
RTVSPropertyOp21
 70
     1
102
RTVSPropertyOp22
 70
     1
102
RTVSPropertyOp23
 70
     1
102
RTVSPropertyOp24
 70
     1
102
RTVSPropertyOp25
 70
     1
102
RTVSPropertyOp26
 70
     1
102
RTVSPropertyOp27
 70
     1
  0
XRECORD
  5
2B9E
102
{ACAD_REACTORS
330
2B9D
102
}
330
2B9D
100
AcDbXrecord
280
     1
102
RTVSPropertyOp0
 70
     1
102
RTVSPropertyOp1
 70
     1
102
RTVSPropertyOp2
 70
     1
102
RTVSPropertyOp3
 70
     1
102
RTVSPropertyOp4
 70
     1
102
RTVSPropertyOp5
 70
     1
102
RTVSPropertyOp6
 70
     1
102
RTVSPropertyOp7
 70
     1
102
RTVSPropertyOp8
 70
     1
102
RTVSPropertyOp9
 70
     1
102
RTVSPropertyOp10
 70
     1
102
RTVSPropertyOp11
 70
     1
102
RTVSPropertyOp12
 70
     1
102
RTVSPropertyOp13
 70
     1
102
RTVSPropertyOp14
 70
     1
102
RTVSPropertyOp15
 70
     1
102
RTVSPropertyOp16
 70
     1
102
RTVSPropertyOp17
 70
     1
102
RTVSPropertyOp18
 70
     1
102
RTVSPropertyOp19
 70
     1
102
RTVSPropertyOp20
 70
     1
102
RTVSPropertyOp21
 70
     1
102
RTVSPropertyOp22
 70
     1
102
RTVSPropertyOp23
 70
     1
102
RTVSPropertyOp24
 70
     1
102
RTVSPropertyOp25
 70
     1
102
RTVSPropertyOp26
 70
     1
102
RTVSPropertyOp27
 70
     1
  0
XRECORD
  5
2BA0
102
{ACAD_REACTORS
330
2B9F
102
}
330
2B9F
100
AcDbXrecord
280
     1
102
RTVSPropertyOp0
 70
     1
102
RTVSPropertyOp1
 70
     1
102
RTVSPropertyOp2
 70
     1
102
RTVSPropertyOp3
 70
     1
102
RTVSPropertyOp4
 70
     1
102
RTVSPropertyOp5
 70
     1
102
RTVSPropertyOp6
 70
     1
102
RTVSPropertyOp7
 70
     1
102
RTVSPropertyOp8
 70
     1
102
RTVSPropertyOp9
 70
     1
102
RTVSPropertyOp10
 70
     1
102
RTVSPropertyOp11
 70
     1
102
RTVSPropertyOp12
 70
     1
102
RTVSPropertyOp13
 70
     1
102
RTVSPropertyOp14
 70
     1
102
RTVSPropertyOp15
 70
     1
102
RTVSPropertyOp16
 70
     1
102
RTVSPropertyOp17
 70
     1
102
RTVSPropertyOp18
 70
     1
102
RTVSPropertyOp19
 70
     1
102
RTVSPropertyOp20
 70
     1
102
RTVSPropertyOp21
 70
     1
102
RTVSPropertyOp22
 70
     1
102
RTVSPropertyOp23
 70
     1
102
RTVSPropertyOp24
 70
     1
102
RTVSPropertyOp25
 70
     1
102
RTVSPropertyOp26
 70
     1
102
RTVSPropertyOp27
 70
     1
  0
XRECORD
  5
2BB4
102
{ACAD_REACTORS
330
2BB3
102
}
330
2BB3
100
AcDbXrecord
280
     1
102
RTVSPropertyOp0
 70
     0
102
RTVSPropertyOp1
 70
     0
102
RTVSPropertyOp2
 70
     0
102
RTVSPropertyOp3
 70
     0
102
RTVSPropertyOp4
 70
     0
102
RTVSPropertyOp5
 70
     0
102
RTVSPropertyOp6
 70
     0
102
RTVSPropertyOp7
 70
     0
102
RTVSPropertyOp8
 70
     0
102
RTVSPropertyOp9
 70
     0
102
RTVSPropertyOp10
 70
     0
102
RTVSPropertyOp11
 70
     0
102
RTVSPropertyOp12
 70
     0
102
RTVSPropertyOp13
 70
     0
102
RTVSPropertyOp14
 70
     2
102
RTVSPropertyOp15
 70
     0
102
RTVSPropertyOp16
 70
     0
102
RTVSPropertyOp17
 70
     0
102
RTVSPropertyOp18
 70
     0
102
RTVSPropertyOp19
 70
     0
102
RTVSPropertyOp20
 70
     0
102
RTVSPropertyOp21
 70
     0
102
RTVSPropertyOp22
 70
     0
102
RTVSPropertyOp23
 70
     0
102
RTVSPropertyOp24
 70
     0
102
RTVSPropertyOp25
 70
     0
102
RTVSPropertyOp26
 70
     0
102
RTVSPropertyOp27
 70
     0
  0
XRECORD
  5
2BAE
102
{ACAD_REACTORS
330
2BAD
102
}
330
2BAD
100
AcDbXrecord
280
     1
102
RTVSPropertyOp0
 70
     1
102
RTVSPropertyOp1
 70
     1
102
RTVSPropertyOp2
 70
     1
102
RTVSPropertyOp3
 70
     1
102
RTVSPropertyOp4
 70
     1
102
RTVSPropertyOp5
 70
     1
102
RTVSPropertyOp6
 70
     1
102
RTVSPropertyOp7
 70
     1
102
RTVSPropertyOp8
 70
     1
102
RTVSPropertyOp9
 70
     1
102
RTVSPropertyOp10
 70
     1
102
RTVSPropertyOp11
 70
     1
102
RTVSPropertyOp12
 70
     1
102
RTVSPropertyOp13
 70
     1
102
RTVSPropertyOp14
 70
     1
102
RTVSPropertyOp15
 70
     1
102
RTVSPropertyOp16
 70
     1
102
RTVSPropertyOp17
 70
     1
102
RTVSPropertyOp18
 70
     1
102
RTVSPropertyOp19
 70
     1
102
RTVSPropertyOp20
 70
     1
102
RTVSPropertyOp21
 70
     1
102
RTVSPropertyOp22
 70
     1
102
RTVSPropertyOp23
 70
     1
102
RTVSPropertyOp24
 70
     1
102
RTVSPropertyOp25
 70
     1
102
RTVSPropertyOp26
 70
     1
102
RTVSPropertyOp27
 70
     1
  0
XRECORD
  5
2BB6
102
{ACAD_REACTORS
330
2BB5
102
}
330
2BB5
100
AcDbXrecord
280
     1
102
RTVSPropertyOp0
 70
     0
102
RTVSPropertyOp1
 70
     0
102
RTVSPropertyOp2
 70
     0
102
RTVSPropertyOp3
 70
     0
102
RTVSPropertyOp4
 70
     0
102
RTVSPropertyOp5
 70
     0
102
RTVSPropertyOp6
 70
     0
102
RTVSPropertyOp7
 70
     0
102
RTVSPropertyOp8
 70
     0
102
RTVSPropertyOp9
 70
     0
102
RTVSPropertyOp10
 70
     0
102
RTVSPropertyOp11
 70
     0
102
RTVSPropertyOp12
 70
     0
102
RTVSPropertyOp13
 70
     0
102
RTVSPropertyOp14
 70
     2
102
RTVSPropertyOp15
 70
     0
102
RTVSPropertyOp16
 70
     0
102
RTVSPropertyOp17
 70
     0
102
RTVSPropertyOp18
 70
     0
102
RTVSPropertyOp19
 70
     0
102
RTVSPropertyOp20
 70
     0
102
RTVSPropertyOp21
 70
     0
102
RTVSPropertyOp22
 70
     0
102
RTVSPropertyOp23
 70
     0
102
RTVSPropertyOp24
 70
     0
102
RTVSPropertyOp25
 70
     0
102
RTVSPropertyOp26
 70
     0
102
RTVSPropertyOp27
 70
     0
  0
XRECORD
  5
2B96
102
{ACAD_REACTORS
330
2B95
102
}
330
2B95
100
AcDbXrecord
280
     1
102
RTVSPropertyOp0
 70
     1
102
RTVSPropertyOp1
 70
     1
102
RTVSPropertyOp2
 70
     1
102
RTVSPropertyOp3
 70
     1
102
RTVSPropertyOp4
 70
     1
102
RTVSPropertyOp5
 70
     1
102
RTVSPropertyOp6
 70
     1
102
RTVSPropertyOp7
 70
     1
102
RTVSPropertyOp8
 70
     1
102
RTVSPropertyOp9
 70
     1
102
RTVSPropertyOp10
 70
     1
102
RTVSPropertyOp11
 70
     1
102
RTVSPropertyOp12
 70
     1
102
RTVSPropertyOp13
 70
     1
102
RTVSPropertyOp14
 70
     1
102
RTVSPropertyOp15
 70
     1
102
RTVSPropertyOp16
 70
     1
102
RTVSPropertyOp17
 70
     1
102
RTVSPropertyOp18
 70
     1
102
RTVSPropertyOp19
 70
     1
102
RTVSPropertyOp20
 70
     1
102
RTVSPropertyOp21
 70
     1
102
RTVSPropertyOp22
 70
     1
102
RTVSPropertyOp23
 70
     1
102
RTVSPropertyOp24
 70
     1
102
RTVSPropertyOp25
 70
     1
102
RTVSPropertyOp26
 70
     1
102
RTVSPropertyOp27
 70
     1
  0
XRECORD
  5
2BAC
102
{ACAD_REACTORS
330
2BAB
102
}
330
2BAB
100
AcDbXrecord
280
     1
102
RTVSPropertyOp0
 70
     1
102
RTVSPropertyOp1
 70
     1
102
RTVSPropertyOp2
 70
     1
102
RTVSPropertyOp3
 70
     1
102
RTVSPropertyOp4
 70
     1
102
RTVSPropertyOp5
 70
     1
102
RTVSPropertyOp6
 70
     1
102
RTVSPropertyOp7
 70
     1
102
RTVSPropertyOp8
 70
     1
102
RTVSPropertyOp9
 70
     1
102
RTVSPropertyOp10
 70
     1
102
RTVSPropertyOp11
 70
     1
102
RTVSPropertyOp12
 70
     1
102
RTVSPropertyOp13
 70
     1
102
RTVSPropertyOp14
 70
     1
102
RTVSPropertyOp15
 70
     1
102
RTVSPropertyOp16
 70
     1
102
RTVSPropertyOp17
 70
     1
102
RTVSPropertyOp18
 70
     1
102
RTVSPropertyOp19
 70
     1
102
RTVSPropertyOp20
 70
     1
102
RTVSPropertyOp21
 70
     1
102
RTVSPropertyOp22
 70
     1
102
RTVSPropertyOp23
 70
     1
102
RTVSPropertyOp24
 70
     1
102
RTVSPropertyOp25
 70
     1
102
RTVSPropertyOp26
 70
     1
102
RTVSPropertyOp27
 70
     1
  0
ENDSEC
  0
EOF
