  0
SECTION
  2
HEADER
  9
$ACADVER
  1
AC1021
  9
$ACADMAINTVER
 70
    50
  9
$DWGCODEPAGE
  3
ANSI_1252
  9
$AUTHOR
  1
marcel
  9
$LASTSAVEDBY
  1
marcel
  9
$INSBASE
 10
0.0
 20
0.0
 30
0.0
  9
$EXTMIN
 10
208920.445
 20
438442.577
 30
0.0
  9
$EXTMAX
 10
209657.467
 20
439127.034
 30
0.0
  9
$LIMMIN
 10
207277.307111
 20
436773.156611
  9
$LIMMAX
 10
211300.604889
 20
440796.454389
  9
$ORTHOMODE
 70
     0
  9
$REGENMODE
 70
     1
  9
$FILLMODE
 70
     1
  9
$QTEXTMODE
 70
     0
  9
$MIRRTEXT
 70
     0
  9
$LTSCALE
 40
1.0
  9
$ATTMODE
 70
     1
  9
$TEXTSIZE
 40
1.5
  9
$TRACEWID
 40
0.05
  9
$TEXTSTYLE
  7
Standard
  9
$CLAYER
  8
0
  9
$CELTYPE
  6
ByLayer
  9
$CECOLOR
 62
   256
  9
$CELTSCALE
 40
1.0
  9
$DISPSILH
 70
     0
  9
$DIMSCALE
 40
1.0
  9
$DIMASZ
 40
0.18
  9
$DIMEXO
 40
0.0625
  9
$DIMDLI
 40
0.38
  9
$DIMRND
 40
0.0
  9
$DIMDLE
 40
0.0
  9
$DIMEXE
 40
0.18
  9
$DIMTP
 40
0.0
  9
$DIMTM
 40
0.0
  9
$DIMTXT
 40
0.18
  9
$DIMCEN
 40
0.09
  9
$DIMTSZ
 40
0.0
  9
$DIMTOL
 70
     0
  9
$DIMLIM
 70
     0
  9
$DIMTIH
 70
     1
  9
$DIMTOH
 70
     1
  9
$DIMSE1
 70
     0
  9
$DIMSE2
 70
     0
  9
$DIMTAD
 70
     0
  9
$DIMZIN
 70
     0
  9
$DIMBLK
  1

  9
$DIMASO
 70
     1
  9
$DIMSHO
 70
     1
  9
$DIMPOST
  1

  9
$DIMAPOST
  1

  9
$DIMALT
 70
     0
  9
$DIMALTD
 70
     2
  9
$DIMALTF
 40
25.4
  9
$DIMLFAC
 40
1.0
  9
$DIMTOFL
 70
     0
  9
$DIMTVP
 40
0.0
  9
$DIMTIX
 70
     0
  9
$DIMSOXD
 70
     0
  9
$DIMSAH
 70
     0
  9
$DIMBLK1
  1

  9
$DIMBLK2
  1

  9
$DIMSTYLE
  2
Standard
  9
$DIMCLRD
 70
     0
  9
$DIMCLRE
 70
     0
  9
$DIMCLRT
 70
     0
  9
$DIMTFAC
 40
1.0
  9
$DIMGAP
 40
0.09
  9
$DIMJUST
 70
     0
  9
$DIMSD1
 70
     0
  9
$DIMSD2
 70
     0
  9
$DIMTOLJ
 70
     1
  9
$DIMTZIN
 70
     0
  9
$DIMALTZ
 70
     0
  9
$DIMALTTZ
 70
     0
  9
$DIMUPT
 70
     0
  9
$DIMDEC
 70
     4
  9
$DIMTDEC
 70
     4
  9
$DIMALTU
 70
     2
  9
$DIMALTTD
 70
     2
  9
$DIMTXSTY
  7
Standard
  9
$DIMAUNIT
 70
     0
  9
$DIMADEC
 70
     0
  9
$DIMALTRND
 40
0.0
  9
$DIMAZIN
 70
     0
  9
$DIMDSEP
 70
    46
  9
$DIMATFIT
 70
     3
  9
$DIMFRAC
 70
     0
  9
$DIMLDRBLK
  1

  9
$DIMLUNIT
 70
     2
  9
$DIMLWD
 70
    -2
  9
$DIMLWE
 70
    -2
  9
$DIMTMOVE
 70
     0
  9
$DIMFXL
 40
1.0
  9
$DIMFXLON
 70
     0
  9
$DIMJOGANG
 40
0.785398
  9
$DIMTFILL
 70
     0
  9
$DIMTFILLCLR
 70
     0
  9
$DIMARCSYM
 70
     0
  9
$DIMLTYPE
  6

  9
$DIMLTEX1
  6

  9
$DIMLTEX2
  6

  9
$LUNITS
 70
     2
  9
$LUPREC
 70
     3
  9
$SKETCHINC
 40
0.1
  9
$FILLETRAD
 40
0.0
  9
$AUNITS
 70
     0
  9
$AUPREC
 70
     4
  9
$MENU
  1
.
  9
$ELEVATION
 40
0.0
  9
$PELEVATION
 40
0.0
  9
$THICKNESS
 40
0.0
  9
$LIMCHECK
 70
     0
  9
$CHAMFERA
 40
0.0
  9
$CHAMFERB
 40
0.0
  9
$CHAMFERC
 40
0.0
  9
$CHAMFERD
 40
0.0
  9
$SKPOLY
 70
     0
  9
$TDCREATE
 40
2454144.819690683
  9
$TDUCREATE
 40
2454144.778024017
  9
$TDUPDATE
 40
2454144.820353692
  9
$TDUUPDATE
 40
2454144.778687026
  9
$TDINDWG
 40
0.0007361343
  9
$TDUSRTIMER
 40
0.0007359491
  9
$USRTIMER
 70
     1
  9
$ANGBASE
 50
0.0
  9
$ANGDIR
 70
     0
  9
$PDMODE
 70
     0
  9
$PDSIZE
 40
0.0
  9
$PLINEWID
 40
0.0
  9
$SPLFRAME
 70
     0
  9
$SPLINETYPE
 70
     6
  9
$SPLINESEGS
 70
     8
  9
$HANDSEED
  5
1DF1
  9
$SURFTAB1
 70
     6
  9
$SURFTAB2
 70
     6
  9
$SURFTYPE
 70
     6
  9
$SURFU
 70
     6
  9
$SURFV
 70
     6
  9
$UCSBASE
  2

  9
$UCSNAME
  2

  9
$UCSORG
 10
0.0
 20
0.0
 30
0.0
  9
$UCSXDIR
 10
1.0
 20
0.0
 30
0.0
  9
$UCSYDIR
 10
0.0
 20
1.0
 30
0.0
  9
$UCSORTHOREF
  2

  9
$UCSORTHOVIEW
 70
     0
  9
$UCSORGTOP
 10
0.0
 20
0.0
 30
0.0
  9
$UCSORGBOTTOM
 10
0.0
 20
0.0
 30
0.0
  9
$UCSORGLEFT
 10
0.0
 20
0.0
 30
0.0
  9
$UCSORGRIGHT
 10
0.0
 20
0.0
 30
0.0
  9
$UCSORGFRONT
 10
0.0
 20
0.0
 30
0.0
  9
$UCSORGBACK
 10
0.0
 20
0.0
 30
0.0
  9
$PUCSBASE
  2

  9
$PUCSNAME
  2

  9
$PUCSORG
 10
0.0
 20
0.0
 30
0.0
  9
$PUCSXDIR
 10
1.0
 20
0.0
 30
0.0
  9
$PUCSYDIR
 10
0.0
 20
1.0
 30
0.0
  9
$PUCSORTHOREF
  2

  9
$PUCSORTHOVIEW
 70
     0
  9
$PUCSORGTOP
 10
0.0
 20
0.0
 30
0.0
  9
$PUCSORGBOTTOM
 10
0.0
 20
0.0
 30
0.0
  9
$PUCSORGLEFT
 10
0.0
 20
0.0
 30
0.0
  9
$PUCSORGRIGHT
 10
0.0
 20
0.0
 30
0.0
  9
$PUCSORGFRONT
 10
0.0
 20
0.0
 30
0.0
  9
$PUCSORGBACK
 10
0.0
 20
0.0
 30
0.0
  9
$USERI1
 70
     0
  9
$USERI2
 70
     0
  9
$USERI3
 70
     0
  9
$USERI4
 70
     0
  9
$USERI5
 70
     0
  9
$USERR1
 40
0.0
  9
$USERR2
 40
0.0
  9
$USERR3
 40
0.0
  9
$USERR4
 40
0.0
  9
$USERR5
 40
0.0
  9
$WORLDVIEW
 70
     1
  9
$SHADEDGE
 70
     3
  9
$SHADEDIF
 70
    70
  9
$TILEMODE
 70
     1
  9
$MAXACTVP
 70
    64
  9
$PINSBASE
 10
0.0
 20
0.0
 30
0.0
  9
$PLIMCHECK
 70
     0
  9
$PEXTMIN
 10
1.049744
 20
0.799667
 30
-0.001526
  9
$PEXTMAX
 10
9.450623
 20
7.200577
 30
0.0
  9
$PLIMMIN
 10
-0.25
 20
-0.25
  9
$PLIMMAX
 10
10.75
 20
8.25
  9
$UNITMODE
 70
     0
  9
$VISRETAIN
 70
     1
  9
$PLINEGEN
 70
     0
  9
$PSLTSCALE
 70
     0
  9
$TREEDEPTH
 70
  3020
  9
$CMLSTYLE
  2
Standard
  9
$CMLJUST
 70
     0
  9
$CMLSCALE
 40
1.0
  9
$PROXYGRAPHICS
 70
     1
  9
$MEASUREMENT
 70
     0
  9
$CELWEIGHT
370
    -1
  9
$ENDCAPS
280
     0
  9
$JOINSTYLE
280
     0
  9
$LWDISPLAY
290
     1
  9
$INSUNITS
 70
     6
  9
$HYPERLINKBASE
  1

  9
$STYLESHEET
  1

  9
$XEDIT
290
     1
  9
$CEPSNTYPE
380
     0
  9
$PSTYLEMODE
290
     1
  9
$FINGERPRINTGUID
  2
{D87F09E2-996B-47EA-BC6B-F24E5CF198DC}
  9
$VERSIONGUID
  2
{82C521FC-BF81-46B3-825E-420B6BD93A99}
  9
$EXTNAMES
290
     1
  9
$PSVPSCALE
 40
0.0
  9
$OLESTARTUP
290
     0
  9
$SORTENTS
280
   127
  9
$INDEXCTL
280
     0
  9
$HIDETEXT
280
     1
  9
$XCLIPFRAME
290
     0
  9
$HALOGAP
280
     0
  9
$OBSCOLOR
 70
   257
  9
$OBSLTYPE
280
     0
  9
$INTERSECTIONDISPLAY
280
     0
  9
$INTERSECTIONCOLOR
 70
   257
  9
$DIMASSOC
280
     1
  9
$PROJECTNAME
  1

  9
$CAMERADISPLAY
290
     0
  9
$LENSLENGTH
 40
50.0
  9
$CAMERAHEIGHT
 40
0.0
  9
$STEPSPERSEC
 40
2.0
  9
$STEPSIZE
 40
6.0
  9
$3DDWFPREC
 40
2.0
  9
$PSOLWIDTH
 40
0.25
  9
$PSOLHEIGHT
 40
4.0
  9
$LOFTANG1
 40
1.570796
  9
$LOFTANG2
 40
1.570796
  9
$LOFTMAG1
 40
0.0
  9
$LOFTMAG2
 40
0.0
  9
$LOFTPARAM
 70
     7
  9
$LOFTNORMALS
280
     1
  9
$LATITUDE
 40
37.795
  9
$LONGITUDE
 40
-122.394
  9
$NORTHDIRECTION
 40
0.0
  9
$TIMEZONE
 70
 -8000
  9
$LIGHTGLYPHDISPLAY
280
     1
  9
$TILEMODELIGHTSYNCH
280
     1
  9
$CMATERIAL
347
1D12
  9
$SOLIDHIST
280
     1
  9
$SHOWHIST
280
     1
  9
$DWFFRAME
280
     2
  9
$DGNFRAME
280
     0
  9
$REALWORLDSCALE
290
     1
  9
$INTERFERECOLOR
 62
     1
  9
$INTERFEREOBJVS
345
1D28
  9
$INTERFEREVPVS
346
1D29
  9
$CSHADOW
280
     0
  9
$SHADOWPLANELOCATION
 40
0.0
  0
ENDSEC
  0
SECTION
  2
CLASSES
  0
CLASS
  1
ACDBDICTIONARYWDFLT
  2
AcDbDictionaryWithDefault
  3
ObjectDBX Classes
 90
        0
 91
        1
280
     0
281
     0
  0
CLASS
  1
DICTIONARYVAR
  2
AcDbDictionaryVar
  3
ObjectDBX Classes
 90
        0
 91
        7
280
     0
281
     0
  0
CLASS
  1
TABLESTYLE
  2
AcDbTableStyle
  3
ObjectDBX Classes
 90
     4095
 91
        1
280
     0
281
     0
  0
CLASS
  1
MATERIAL
  2
AcDbMaterial
  3
ObjectDBX Classes
 90
     1153
 91
        3
280
     0
281
     0
  0
CLASS
  1
VISUALSTYLE
  2
AcDbVisualStyle
  3
ObjectDBX Classes
 90
     4095
 91
       19
280
     0
281
     0
  0
CLASS
  1
SCALE
  2
AcDbScale
  3
ObjectDBX Classes
 90
     1153
 91
       33
280
     0
281
     0
  0
CLASS
  1
MLEADERSTYLE
  2
AcDbMLeaderStyle
  3
ACDB_MLEADERSTYLE_CLASS
 90
     4095
 91
        1
280
     0
281
     0
  0
CLASS
  1
CELLSTYLEMAP
  2
AcDbCellStyleMap
  3
ObjectDBX Classes
 90
     1152
 91
        2
280
     0
281
     0
  0
ENDSEC
  0
SECTION
  2
TABLES
  0
TABLE
  2
VPORT
  5
1D06
330
0
100
AcDbSymbolTable
 70
     1
  0
VPORT
  5
1CCF
330
1D06
100
AcDbSymbolTableRecord
100
AcDbViewportTableRecord
  2
*ACTIVE
 70
     0
 10
0.0
 20
0.0
 11
1.0
 21
1.0
 12
209288.956
 22
438616.058169
 13
0.0
 23
0.0
 14
1.0
 24
1.0
 15
5.0
 25
5.0
 16
0.0
 26
0.0
 36
1.0
 17
0.0
 27
0.0
 37
0.0
 40
436.378439
 41
1.773399
 42
50.0
 43
0.0
 44
0.0
 50
0.0
 51
0.0
 71
     0
 72
   100
 73
     1
 74
     0
 75
     0
 76
     1
 77
     0
 78
     1
281
     0
 65
     1
110
0.0
120
0.0
130
0.0
111
1.0
121
0.0
131
0.0
112
0.0
122
1.0
132
0.0
 79
     0
146
0.0
348
1D08
 60
     3
 61
     5
292
     1
282
     1
141
0.0
142
0.0
 63
   250
421
  3355443
  0
ENDTAB
  0
TABLE
  2
LTYPE
  5
1D01
330
0
100
AcDbSymbolTable
 70
     1
  0
LTYPE
  5
1D02
330
1D01
100
AcDbSymbolTableRecord
100
AcDbLinetypeTableRecord
  2
ByBlock
 70
     0
  3

 72
    65
 73
     0
 40
0.0
  0
LTYPE
  5
1D03
330
1D01
100
AcDbSymbolTableRecord
100
AcDbLinetypeTableRecord
  2
ByLayer
 70
     0
  3

 72
    65
 73
     0
 40
0.0
  0
LTYPE
  5
1CF0
330
1D01
100
AcDbSymbolTableRecord
100
AcDbLinetypeTableRecord
  2
Continuous
 70
     0
  3
Solid line
 72
    65
 73
     0
 40
0.0
  0
ENDTAB
  0
TABLE
  2
LAYER
  5
1CFB
102
{ACAD_XDICTIONARY
360
1CFC
102
}
330
0
100
AcDbSymbolTable
 70
    17
  0
LAYER
  5
1CE3
330
1CFB
100
AcDbSymbolTableRecord
100
AcDbLayerTableRecord
  2
0
 70
     0
 62
     5
  6
Continuous
370
    40
390
1CE4
347
1CE7
  0
LAYER
  5
E9A
330
1CFB
100
AcDbSymbolTableRecord
100
AcDbLayerTableRecord
  2
Kader
 70
     0
 62
     7
  6
Continuous
370
     0
390
1CE4
347
1CE7
  0
LAYER
  5
13C0
330
1CFB
100
AcDbSymbolTableRecord
100
AcDbLayerTableRecord
  2
Bestemmingsplangebied
 70
     0
 62
     7
  6
Continuous
370
     0
390
1CE4
347
1CE7
  0
LAYER
  5
13D4
330
1CFB
100
AcDbSymbolTableRecord
100
AcDbLayerTableRecord
  2
EB_Agrarisch
 70
     0
 62
     7
  6
Continuous
370
     0
390
1CE4
347
1CE7
1001
MStation
1000
Trnsp
1002
{
1040
0.6
1002
}
  0
LAYER
  5
1440
330
1CFB
100
AcDbSymbolTableRecord
100
AcDbLayerTableRecord
  2
Bouwvlak
 70
     0
 62
     7
  6
Continuous
370
     0
390
1CE4
347
1CE7
  0
LAYER
  5
1441
330
1CFB
100
AcDbSymbolTableRecord
100
AcDbLayerTableRecord
  2
Waarde - Archeologische Verwachting 1
 70
     0
 62
     7
  6
Continuous
370
     0
390
1CE4
347
1CE7
  0
LAYER
  5
1460
330
1CFB
100
AcDbSymbolTableRecord
100
AcDbLayerTableRecord
  2
Waarde - Archeologische Verwachting 2
 70
     0
 62
     7
  6
Continuous
370
     0
390
1CE4
347
1CE7
  0
LAYER
  5
17E6
330
1CFB
100
AcDbSymbolTableRecord
100
AcDbLayerTableRecord
  2
RoPlan_Legenda_Systeem_Level
 70
     0
 62
     7
  6
Continuous
370
     0
390
1CE4
347
1CE7
  0
LAYER
  5
17E7
330
1CFB
100
AcDbSymbolTableRecord
100
AcDbLayerTableRecord
  2
Onderhoek
 70
     0
 62
     7
  6
Continuous
370
     0
390
1CE4
347
1CE7
  0
LAYER
  5
1984
330
1CFB
100
AcDbSymbolTableRecord
100
AcDbLayerTableRecord
  2
tekst1 legenda
 70
     0
 62
     7
  6
Continuous
370
     0
390
1CE4
347
1CE7
  0
LAYER
  5
1CC7
330
1CFB
100
AcDbSymbolTableRecord
100
AcDbLayerTableRecord
  2
BIJPIJL
 70
     0
 62
     7
  6
Continuous
370
     0
390
1CE4
347
1CE7
  0
LAYER
  5
1CC8
330
1CFB
100
AcDbSymbolTableRecord
100
AcDbLayerTableRecord
  2
Z02
 70
     0
 62
     7
  6
Continuous
370
     0
390
1CE4
347
1CE7
  0
LAYER
  5
1CC9
330
1CFB
100
AcDbSymbolTableRecord
100
AcDbLayerTableRecord
  2
Z06
 70
     0
 62
     7
  6
Continuous
370
     0
390
1CE4
347
1CE7
  0
LAYER
  5
1CCA
330
1CFB
100
AcDbSymbolTableRecord
100
AcDbLayerTableRecord
  2
B01
 70
     0
 62
     7
  6
Continuous
370
     0
390
1CE4
347
1CE7
  0
LAYER
  5
1CCB
330
1CFB
100
AcDbSymbolTableRecord
100
AcDbLayerTableRecord
  2
B11
 70
     0
 62
     7
  6
Continuous
370
     0
390
1CE4
347
1CE7
  0
LAYER
  5
1CCC
330
1CFB
100
AcDbSymbolTableRecord
100
AcDbLayerTableRecord
  2
G01
 70
     0
 62
     7
  6
Continuous
370
     0
390
1CE4
347
1CE7
  0
LAYER
  5
1CCD
330
1CFB
100
AcDbSymbolTableRecord
100
AcDbLayerTableRecord
  2
S07
 70
     0
 62
     7
  6
Continuous
370
     0
390
1CE4
347
1CE7
  0
ENDTAB
  0
TABLE
  2
STYLE
  5
1CFE
330
0
100
AcDbSymbolTable
 70
     2
  0
STYLE
  5
1CFF
330
1CFE
100
AcDbSymbolTableRecord
100
AcDbTextStyleTableRecord
  2
Standard
 70
     0
 40
0.0
 41
1.0
 50
0.0
 71
     0
 42
1.5
  3
txt.shx
  4

  0
STYLE
  5
1A70
330
1CFE
100
AcDbSymbolTableRecord
100
AcDbTextStyleTableRecord
  2
ISO
 70
     0
 40
1.0
 41
1.0
 50
0.0
 71
     0
 42
0.2
  3
arial.ttf
  4

1001
ACAD
1000
Arial
1071
       39
  0
ENDTAB
  0
TABLE
  2
VIEW
  5
1D04
330
0
100
AcDbSymbolTable
 70
     0
  0
ENDTAB
  0
TABLE
  2
UCS
  5
1D05
330
0
100
AcDbSymbolTable
 70
     0
  0
ENDTAB
  0
TABLE
  2
APPID
  5
1D0A
330
0
100
AcDbSymbolTable
 70
     5
  0
APPID
  5
1D0B
330
1D0A
100
AcDbSymbolTableRecord
100
AcDbRegAppTableRecord
  2
ACAD
 70
     0
  0
APPID
  5
1CFA
330
1D0A
100
AcDbSymbolTableRecord
100
AcDbRegAppTableRecord
  2
ACAD_PSEXT
 70
     0
  0
APPID
  5
1D4D
330
1D0A
100
AcDbSymbolTableRecord
100
AcDbRegAppTableRecord
  2
MStation
 70
     0
  0
APPID
  5
1A9D
330
1D0A
100
AcDbSymbolTableRecord
100
AcDbRegAppTableRecord
  2
ToXml
 70
     0
  0
APPID
  5
1DF0
330
1D0A
100
AcDbSymbolTableRecord
100
AcDbRegAppTableRecord
  2
ACAD_MLEADERVER
 70
     0
  0
ENDTAB
  0
TABLE
  2
DIMSTYLE
  5
1D0C
330
0
100
AcDbSymbolTable
 70
     1
100
AcDbDimStyleTable
 71
     1
340
1D0D
  0
DIMSTYLE
105
1D0D
330
1D0C
100
AcDbSymbolTableRecord
100
AcDbDimStyleTableRecord
  2
Standard
 70
     0
 41
0.18
140
0.18
141
0.09
340
1CFF
  0
ENDTAB
  0
TABLE
  2
BLOCK_RECORD
  5
1CE0
330
0
100
AcDbSymbolTable
 70
     0
  0
BLOCK_RECORD
  5
1CE1
330
1CE0
100
AcDbSymbolTableRecord
100
AcDbBlockTableRecord
  2
*Model_Space
340
1CF2
 70
     0
280
     1
281
     0
  0
BLOCK_RECORD
  5
1CF4
330
1CE0
100
AcDbSymbolTableRecord
100
AcDbBlockTableRecord
  2
*Paper_Space
340
1CF7
 70
     0
280
     1
281
     0
  0
ENDTAB
  0
ENDSEC
  0
SECTION
  2
BLOCKS
  0
BLOCK
  5
1CE2
330
1CE1
100
AcDbEntity
  8
0
100
AcDbBlockBegin
  2
*Model_Space
 70
     0
 10
0.0
 20
0.0
 30
0.0
  3
*Model_Space
  1

  0
ENDBLK
  5
1CF1
330
1CE1
100
AcDbEntity
  8
0
100
AcDbBlockEnd
  0
BLOCK
  5
1CF5
330
1CF4
100
AcDbEntity
 67
     1
  8
0
100
AcDbBlockBegin
  2
*Paper_Space
 70
     0
 10
0.0
 20
0.0
 30
0.0
  3
*Paper_Space
  1

  0
ENDBLK
  5
1CF6
330
1CF4
100
AcDbEntity
 67
     1
  8
0
100
AcDbBlockEnd
  0
ENDSEC
  0
SECTION
  2
ENTITIES
  0
TEXT
  5
1A73
330
1CE1
100
AcDbEntity
  8
0
 62
     7
100
AcDbText
 10
209142.76693
 20
438455.233
 30
0.0
 40
0.9
  1
DDM00 O  132
  7
ISO
 72
     1
 11
209146.926
 21
438455.683
 31
0.0
100
AcDbText
 73
     2
  0
TEXT
  5
1A74
330
1CE1
100
AcDbEntity
  8
0
 62
     7
100
AcDbText
 10
209236.833186
 20
438622.869
 30
0.0
 40
0.9
  1
DDM00 O  134
  7
ISO
 72
     1
 11
209240.995
 21
438623.319
 31
0.0
100
AcDbText
 73
     2
  0
TEXT
  5
1A75
330
1CE1
100
AcDbEntity
  8
0
 62
     7
100
AcDbText
 10
209435.732882
 20
438685.282304
 30
0.0
 40
0.9
  1
DDM00 O  135
 50
323.622932
  7
ISO
 72
     1
 11
209439.355
 21
438683.173
 31
0.0
100
AcDbText
 73
     2
  0
TEXT
  5
1A76
330
1CE1
100
AcDbEntity
  8
0
 62
     7
100
AcDbText
 10
209577.244843
 20
438666.342
 30
0.0
 40
0.9
  1
DDM00 O  150
  7
ISO
 72
     1
 11
209581.407
 21
438666.792
 31
0.0
100
AcDbText
 73
     2
  0
TEXT
  5
1A77
330
1CE1
100
AcDbEntity
  8
0
 62
     7
100
AcDbText
 10
209397.386247
 20
438775.739
 30
0.0
 40
0.9
  1
DDM00 O  151
  7
ISO
 72
     1
 11
209401.463
 21
438776.189
 31
0.0
100
AcDbText
 73
     2
  0
TEXT
  5
1A78
330
1CE1
100
AcDbEntity
  8
0
 62
     7
100
AcDbText
 10
209473.087688
 20
438806.276654
 30
0.0
 40
0.9
  1
DDM00 O  153
 50
325.669783
  7
ISO
 72
     1
 11
209476.78
 21
438804.3
 31
0.0
100
AcDbText
 73
     2
  0
TEXT
  5
1A79
330
1CE1
100
AcDbEntity
  8
0
 62
     7
100
AcDbText
 10
209635.566128
 20
438776.636
 30
0.0
 40
0.9
  1
DDM00 O  156
  7
ISO
 72
     1
 11
209639.73
 21
438777.086
 31
0.0
100
AcDbText
 73
     2
  0
LINE
  5
1A7C
330
1CE1
100
AcDbEntity
  8
BIJPIJL
 62
     7
100
AcDbLine
 10
209627.515
 20
438785.375
 30
0.0
 11
209635.95
 21
438776.635659
 31
0.0
  0
TEXT
  5
1A7D
330
1CE1
100
AcDbEntity
  8
0
 62
     7
100
AcDbText
 10
209548.695128
 20
438772.554
 30
0.0
 40
0.9
  1
DDM00 O  157
  7
ISO
 72
     1
 11
209552.859
 21
438773.004
 31
0.0
100
AcDbText
 73
     2
  0
LINE
  5
1A7E
330
1CE1
100
AcDbEntity
  8
BIJPIJL
 62
     7
100
AcDbLine
 10
209563.125
 20
438762.395
 30
0.0
 11
209549.079
 21
438772.553659
 31
0.0
  0
TEXT
  5
1A7F
330
1CE1
100
AcDbEntity
  8
0
 62
     7
100
AcDbText
 10
209589.111442
 20
438768.578
 30
0.0
 40
0.9
  1
DDM00 O  158
  7
ISO
 72
     1
 11
209593.276
 21
438769.028
 31
0.0
100
AcDbText
 73
     2
  0
TEXT
  5
1A80
330
1CE1
100
AcDbEntity
  8
0
 62
     7
100
AcDbText
 10
209568.602442
 20
438781.697
 30
0.0
 40
0.9
  1
DDM00 O  159
  7
ISO
 72
     1
 11
209572.767
 21
438782.147
 31
0.0
100
AcDbText
 73
     2
  0
LINE
  5
1A81
330
1CE1
100
AcDbEntity
  8
BIJPIJL
 62
     7
100
AcDbLine
 10
209566.145
 20
438769.435
 30
0.0
 11
209568.987
 21
438781.696659
 31
0.0
  0
TEXT
  5
1A82
330
1CE1
100
AcDbEntity
  8
0
 62
     7
100
AcDbText
 10
209582.476843
 20
438817.445
 30
0.0
 40
0.9
  1
DDM00 O  160
  7
ISO
 72
     1
 11
209586.639
 21
438817.895
 31
0.0
100
AcDbText
 73
     2
  0
TEXT
  5
1A83
330
1CE1
100
AcDbEntity
  8
0
 62
     7
100
AcDbText
 10
209513.697749
 20
438789.617261
 30
0.0
 40
0.9
  1
DDM00 O  161
 50
325.341064
  7
ISO
 72
     1
 11
209517.307
 21
438787.669
 31
0.0
100
AcDbText
 73
     2
  0
TEXT
  5
1A84
330
1CE1
100
AcDbEntity
  8
0
 62
     7
100
AcDbText
 10
209528.74093
 20
438829.629
 30
0.0
 40
0.9
  1
DDM00 O  162
  7
ISO
 72
     1
 11
209532.9
 21
438830.079
 31
0.0
100
AcDbText
 73
     2
  0
TEXT
  5
1A85
330
1CE1
100
AcDbEntity
  8
0
 62
     7
100
AcDbText
 10
209431.495128
 20
438856.844
 30
0.0
 40
0.9
  1
DDM00 O  163
  7
ISO
 72
     1
 11
209435.659
 21
438857.294
 31
0.0
100
AcDbText
 73
     2
  0
TEXT
  5
1A86
330
1CE1
100
AcDbEntity
  8
0
 62
     7
100
AcDbText
 10
209615.946186
 20
438909.666
 30
0.0
 40
0.9
  1
DDM00 O  164
  7
ISO
 72
     1
 11
209620.108
 21
438910.116
 31
0.0
100
AcDbText
 73
     2
  0
TEXT
  5
1A87
330
1CE1
100
AcDbEntity
  8
0
 62
     7
100
AcDbText
 10
209599.85893
 20
438985.937
 30
0.0
 40
0.9
  1
DDM00 O  172
  7
ISO
 72
     1
 11
209604.018
 21
438986.387
 31
0.0
100
AcDbText
 73
     2
  0
TEXT
  5
1A88
330
1CE1
100
AcDbEntity
  8
0
 62
     7
100
AcDbText
 10
208939.058128
 20
438868.39
 30
0.0
 40
0.9
  1
DDM00 O  287
  7
ISO
 72
     1
 11
208943.222
 21
438868.84
 31
0.0
100
AcDbText
 73
     2
  0
TEXT
  5
1A89
330
1CE1
100
AcDbEntity
  8
0
 62
     7
100
AcDbText
 10
208983.666442
 20
438869.746
 30
0.0
 40
0.9
  1
DDM00 O  288
  7
ISO
 72
     1
 11
208987.831
 21
438870.196
 31
0.0
100
AcDbText
 73
     2
  0
TEXT
  5
1A8A
330
1CE1
100
AcDbEntity
  8
0
 62
     7
100
AcDbText
 10
209423.939442
 20
438995.347
 30
0.0
 40
0.9
  1
DDM00 O  309
  7
ISO
 72
     1
 11
209428.104
 21
438995.797
 31
0.0
100
AcDbText
 73
     2
  0
TEXT
  5
1A8B
330
1CE1
100
AcDbEntity
  8
0
 62
     7
100
AcDbText
 10
209463.552872
 20
438980.24078
 30
0.0
 40
0.9
  1
DDM00 O  310
 50
83.28012
  7
ISO
 72
     1
 11
209463.593
 21
438984.427
 31
0.0
100
AcDbText
 73
     2
  0
TEXT
  5
1A8C
330
1CE1
100
AcDbEntity
  8
0
 62
     7
100
AcDbText
 10
209376.976247
 20
438932.312
 30
0.0
 40
0.9
  1
DDM00 O  311
  7
ISO
 72
     1
 11
209381.053
 21
438932.762
 31
0.0
100
AcDbText
 73
     2
  0
TEXT
  5
1A8D
330
1CE1
100
AcDbEntity
  8
0
 62
     7
100
AcDbText
 10
209319.78893
 20
438899.14
 30
0.0
 40
0.9
  1
DDM00 O  312
  7
ISO
 72
     1
 11
209323.948
 21
438899.59
 31
0.0
100
AcDbText
 73
     2
  0
TEXT
  5
1A8E
330
1CE1
100
AcDbEntity
  8
0
 62
     7
100
AcDbText
 10
209023.026186
 20
438594.38
 30
0.0
 40
0.9
  1
DDM00 O  314
  7
ISO
 72
     1
 11
209027.188
 21
438594.83
 31
0.0
100
AcDbText
 73
     2
  0
TEXT
  5
1A8F
330
1CE1
100
AcDbEntity
  8
0
 62
     7
100
AcDbText
 10
208923.917128
 20
438585.742
 30
0.0
 40
0.9
  1
DDM00 O  316
  7
ISO
 72
     1
 11
208928.081
 21
438586.192
 31
0.0
100
AcDbText
 73
     2
  0
TEXT
  5
1A90
330
1CE1
100
AcDbEntity
  8
0
 62
     7
100
AcDbText
 10
208984.125843
 20
438759.911
 30
0.0
 40
0.9
  1
DDM00 O  320
  7
ISO
 72
     1
 11
208988.288
 21
438760.361
 31
0.0
100
AcDbText
 73
     2
  0
TEXT
  5
1A91
330
1CE1
100
AcDbEntity
  8
0
 62
     7
100
AcDbText
 10
209609.50693
 20
438486.938
 30
0.0
 40
0.9
  1
DDM00 O  732
  7
ISO
 72
     1
 11
209613.666
 21
438487.388
 31
0.0
100
AcDbText
 73
     2
  0
TEXT
  5
1A92
330
1CE1
100
AcDbEntity
  8
0
 62
     7
100
AcDbText
 10
209633.170128
 20
438635.37
 30
0.0
 40
0.9
  1
DDM00 O  733
  7
ISO
 72
     1
 11
209637.334
 21
438635.82
 31
0.0
100
AcDbText
 73
     2
  0
TEXT
  5
1A93
330
1CE1
100
AcDbEntity
  8
0
 62
     7
100
AcDbText
 10
209160.576843
 20
438562.05
 30
0.0
 40
0.9
  1
DDM00 O  850
  7
ISO
 72
     1
 11
209164.739
 21
438562.5
 31
0.0
100
AcDbText
 73
     2
  0
TEXT
  5
1A94
330
1CE1
100
AcDbEntity
  8
0
 62
     7
100
AcDbText
 10
209211.145247
 20
438538.826
 30
0.0
 40
0.9
  1
DDM00 O  851
  7
ISO
 72
     1
 11
209215.222
 21
438539.276
 31
0.0
100
AcDbText
 73
     2
  0
TEXT
  5
1A95
330
1CE1
100
AcDbEntity
  8
0
 62
     7
100
AcDbText
 10
209221.005128
 20
438727.39
 30
0.0
 40
0.9
  1
DDM00 O  853
  7
ISO
 72
     1
 11
209225.169
 21
438727.84
 31
0.0
100
AcDbText
 73
     2
  0
TEXT
  5
1A96
330
1CE1
100
AcDbEntity
  8
0
 62
     7
100
AcDbText
 10
209357.546323
 20
438488.166
 30
0.0
 40
0.9
  1
DDM00 O 1161
  7
ISO
 72
     1
 11
209361.798
 21
438488.616
 31
0.0
100
AcDbText
 73
     2
  0
TEXT
  5
1A97
330
1CE1
100
AcDbEntity
  8
0
 62
     7
100
AcDbText
 10
208987.591774
 20
438982.918
 30
0.0
 40
0.9
  1
DDM00 O 1195
  7
ISO
 72
     1
 11
208991.934
 21
438983.368
 31
0.0
100
AcDbText
 73
     2
  0
TEXT
  5
1A98
330
1CE1
100
AcDbEntity
  8
0
 62
     7
100
AcDbText
 10
209174.947518
 20
438722.552
 30
0.0
 40
0.9
  1
DDM00 O 1269
  7
ISO
 72
     1
 11
209179.287
 21
438723.002
 31
0.0
100
AcDbText
 73
     2
  0
TEXT
  5
1A99
330
1CE1
100
AcDbEntity
  8
0
 62
     7
100
AcDbText
 10
209121.215919
 20
438770.648
 30
0.0
 40
0.9
  1
DDM00 O 1270
  7
ISO
 72
     1
 11
209125.553
 21
438771.098
 31
0.0
100
AcDbText
 73
     2
  0
TEXT
  5
1A9A
330
1CE1
100
AcDbEntity
  8
0
 62
     7
100
AcDbText
 10
209057.518919
 20
438539.653
 30
0.0
 40
0.9
  1
DDM00 O 1590
  7
ISO
 72
     1
 11
209061.856
 21
438540.103
 31
0.0
100
AcDbText
 73
     2
  0
TEXT
  5
1A9B
330
1CE1
100
AcDbEntity
  8
0
 62
     7
100
AcDbText
 10
209105.539323
 20
438512.939
 30
0.0
 40
0.9
  1
DDM00 O 1591
  7
ISO
 72
     1
 11
209109.791
 21
438513.389
 31
0.0
100
AcDbText
 73
     2
  0
MTEXT
  5
1A9E
330
1CE1
100
AcDbEntity
  8
Z02
 62
     7
100
AcDbMText
 10
208945.49
 20
438462.250585
 30
0.0
 40
2.0
 41
0.0
 46
0.0
 71
     7
 72
     1
  1
93
  7
ISO
 73
     2
 44
0.6
1001
ToXml
1000
position=208945.49,438462.039
1000
ngdw_id=0
  0
MTEXT
  5
1A9F
330
1CE1
100
AcDbEntity
  8
Z02
 62
     7
100
AcDbMText
 10
208922.562
 20
438825.565585
 30
0.0
 40
2.0
 41
0.0
 46
0.0
 71
     7
 72
     1
  1
19
  7
ISO
 73
     2
 44
0.6
1001
ToXml
1000
position=208922.562,438825.354
1000
ngdw_id=0
  0
MTEXT
  5
1AA0
330
1CE1
100
AcDbEntity
  8
Z06
 62
     7
100
AcDbMText
 10
209032.308137
 20
438955.218874
 30
0.0
 40
2.0
 41
0.0
 46
0.0
 71
     7
 72
     1
  1
Geulecampweg
  7
ISO
 11
0.23099
 21
0.972956
 31
0.0
 73
     2
 44
0.6
1001
ToXml
1000
position=209032.514,438955.17
1000
ripunt=209032.745,438956.143
1000
ngdw_id=0
  0
MTEXT
  5
1AA1
330
1CE1
100
AcDbEntity
  8
Z02
 62
     7
100
AcDbMText
 10
209106.337
 20
438497.345585
 30
0.0
 40
2.0
 41
0.0
 46
0.0
 71
     7
 72
     1
  1
5
  7
ISO
 73
     2
 44
0.6
1001
ToXml
1000
position=209106.337,438497.134
1000
ngdw_id=0
  0
MTEXT
  5
1AA2
330
1CE1
100
AcDbEntity
  8
Z02
 62
     7
100
AcDbMText
 10
209152.328
 20
438543.408585
 30
0.0
 40
2.0
 41
0.0
 46
0.0
 71
     7
 72
     1
  1
6
  7
ISO
 73
     2
 44
0.6
1001
ToXml
1000
position=209152.328,438543.197
1000
ngdw_id=0
  0
MTEXT
  5
1AA3
330
1CE1
100
AcDbEntity
  8
Z06
 62
     7
100
AcDbMText
 10
209070.916988
 20
438838.857146
 30
0.0
 40
2.0
 41
0.0
 46
0.0
 71
     7
 72
     1
  1
Rijksweg A 18  Zevenaar - Doetinchem
  7
ISO
 11
0.785241
 21
0.61919
 31
0.0
 73
     2
 44
0.6
1001
ToXml
1000
position=209071.048,438838.691
1000
ripunt=209071.833,438839.31
1000
ngdw_id=0
  0
MTEXT
  5
1AA4
330
1CE1
100
AcDbEntity
  8
Z06
 62
     7
100
AcDbMText
 10
209073.764988
 20
438819.848146
 30
0.0
 40
2.0
 41
0.0
 46
0.0
 71
     7
 72
     1
  1
Rijksweg A 18  Zevenaar - Doetinchem
  7
ISO
 11
0.785241
 21
0.61919
 31
0.0
 73
     2
 44
0.6
1001
ToXml
1000
position=209073.896,438819.682
1000
ripunt=209074.681,438820.301
1000
ngdw_id=0
  0
MTEXT
  5
1AA5
330
1CE1
100
AcDbEntity
  8
Z02
 62
     7
100
AcDbMText
 10
209191.558
 20
438722.635585
 30
0.0
 40
2.0
 41
0.0
 46
0.0
 71
     7
 72
     1
  1
5a
  7
ISO
 73
     2
 44
0.6
1001
ToXml
1000
position=209191.558,438722.424
1000
ngdw_id=0
  0
MTEXT
  5
1AA6
330
1CE1
100
AcDbEntity
  8
Z06
 62
     7
100
AcDbMText
 10
209303.001419
 20
438796.382515
 30
0.0
 40
2.0
 41
0.0
 46
0.0
 71
     7
 72
     1
  1
Korenweg
  7
ISO
 11
0.843703
 21
0.536811
 31
0.0
 73
     2
 44
0.6
1001
ToXml
1000
position=209303.115,438796.204
1000
ripunt=209303.959,438796.741
1000
ngdw_id=0
  0
MTEXT
  5
1AA7
330
1CE1
100
AcDbEntity
  8
Z06
 62
     7
100
AcDbMText
 10
209315.091948
 20
438999.713536
 30
0.0
 40
2.0
 41
0.0
 46
0.0
 71
     7
 72
     1
  1
Rijksweg A 18  Zevenaar - Doetinchem
  7
ISO
 11
0.820171
 21
0.572119
 31
0.0
 73
     2
 44
0.6
1001
ToXml
1000
position=209315.213,438999.54
1000
ripunt=209316.033,439000.112
1000
ngdw_id=0
  0
MTEXT
  5
1AA8
330
1CE1
100
AcDbEntity
  8
Z02
 62
     7
100
AcDbMText
 10
209492.271
 20
438836.994585
 30
0.0
 40
2.0
 41
0.0
 46
0.0
 71
     7
 72
     1
  1
3
  7
ISO
 73
     2
 44
0.6
1001
ToXml
1000
position=209492.271,438836.783
1000
ngdw_id=0
  0
MTEXT
  5
1AA9
330
1CE1
100
AcDbEntity
  8
Z06
 62
     7
100
AcDbMText
 10
209493.194386
 20
438793.305473
 30
0.0
 40
2.0
 41
0.0
 46
0.0
 71
     7
 72
     1
  1
Loerbeekseweg
  7
ISO
 11
0.867133
 21
-0.498076
 31
0.0
 73
     2
 44
0.6
1001
ToXml
1000
position=209493.089,438793.122
1000
ripunt=209493.956,438792.624
1000
ngdw_id=0
  0
MTEXT
  5
1AAA
330
1CE1
100
AcDbEntity
  8
Z02
 62
     7
100
AcDbMText
 10
209620.513
 20
438821.322585
 30
0.0
 40
2.0
 41
0.0
 46
0.0
 71
     7
 72
     1
  1
7
  7
ISO
 73
     2
 44
0.6
1001
ToXml
1000
position=209620.513,438821.111
1000
ngdw_id=0
  0
MTEXT
  5
1AAB
330
1CE1
100
AcDbEntity
  8
Z02
 62
     7
100
AcDbMText
 10
209585.796
 20
438752.911585
 30
0.0
 40
2.0
 41
0.0
 46
0.0
 71
     7
 72
     1
  1
5
  7
ISO
 73
     2
 44
0.6
1001
ToXml
1000
position=209585.796,438752.7
1000
ngdw_id=0
  0
MTEXT
  5
1AAC
330
1CE1
100
AcDbEntity
  8
Z02
 62
     7
100
AcDbMText
 10
209504.415
 20
438996.097585
 30
0.0
 40
2.0
 41
0.0
 46
0.0
 71
     7
 72
     1
  1
9
  7
ISO
 73
     2
 44
0.6
1001
ToXml
1000
position=209504.415,438995.886
1000
ngdw_id=0
  0
MTEXT
  5
1AAD
330
1CE1
100
AcDbEntity
  8
Z02
 62
     7
100
AcDbMText
 10
209624.522
 20
438996.143585
 30
0.0
 40
2.0
 41
0.0
 46
0.0
 71
     7
 72
     1
  1
11
  7
ISO
 73
     2
 44
0.6
1001
ToXml
1000
position=209624.522,438995.932
1000
ngdw_id=0
  0
MTEXT
  5
1AAE
330
1CE1
100
AcDbEntity
  8
Z02
 62
     7
100
AcDbMText
 10
209186.919
 20
438442.988585
 30
0.0
 40
2.0
 41
0.0
 46
0.0
 71
     7
 72
     1
  1
101a
  7
ISO
 73
     2
 44
0.6
1001
ToXml
1000
position=209186.919,438442.777
1000
ngdw_id=0
  0
TEXT
  5
1AAF
330
1CE1
100
AcDbEntity
  8
0
 62
     7
100
AcDbText
 10
209512.209128
 20
439054.104
 30
0.0
 40
0.9
  1
DDM00 O  173
  7
ISO
 72
     1
 11
209516.373
 21
439054.554
 31
0.0
100
AcDbText
 73
     2
  0
TEXT
  5
1AB0
330
1CE1
100
AcDbEntity
  8
0
 62
     7
100
AcDbText
 10
209600.351186
 20
439057.738
 30
0.0
 40
0.9
  1
DDM00 O  174
  7
ISO
 72
     1
 11
209604.513
 21
439058.188
 31
0.0
100
AcDbText
 73
     2
  0
TEXT
  5
1AB1
330
1CE1
100
AcDbEntity
  8
0
 62
     7
100
AcDbText
 10
208926.937128
 20
439080.831
 30
0.0
 40
0.9
  1
DDM00 O  277
  7
ISO
 72
     1
 11
208931.101
 21
439081.281
 31
0.0
100
AcDbText
 73
     2
  0
TEXT
  5
1AB2
330
1CE1
100
AcDbEntity
  8
0
 62
     7
100
AcDbText
 10
209050.282843
 20
439103.403
 30
0.0
 40
0.9
  1
DDM00 O  290
  7
ISO
 72
     1
 11
209054.445
 21
439103.853
 31
0.0
100
AcDbText
 73
     2
  0
TEXT
  5
1AB3
330
1CE1
100
AcDbEntity
  8
0
 62
     7
100
AcDbText
 10
209175.312186
 20
439103.15
 30
0.0
 40
0.9
  1
DDM00 O  294
  7
ISO
 72
     1
 11
209179.474
 21
439103.6
 31
0.0
100
AcDbText
 73
     2
  0
TEXT
  5
1AB4
330
1CE1
100
AcDbEntity
  8
0
 62
     7
100
AcDbText
 10
209356.123128
 20
439081.048
 30
0.0
 40
0.9
  1
DDM00 O  307
  7
ISO
 72
     1
 11
209360.287
 21
439081.498
 31
0.0
100
AcDbText
 73
     2
  0
TEXT
  5
1AB5
330
1CE1
100
AcDbEntity
  8
0
 62
     7
100
AcDbText
 10
209460.360442
 20
439053.229
 30
0.0
 40
0.9
  1
DDM00 O  308
  7
ISO
 72
     1
 11
209464.525
 21
439053.679
 31
0.0
100
AcDbText
 73
     2
  0
LINE
  5
1AB6
330
1CE1
100
AcDbEntity
  8
BIJPIJL
 62
     7
100
AcDbLine
 10
209472.505
 20
439050.095
 30
0.0
 11
209460.655
 21
439053.228659
 31
0.0
  0
TEXT
  5
1AB7
330
1CE1
100
AcDbEntity
  8
0
 62
     7
100
AcDbText
 10
209045.410204
 20
439035.189
 30
0.0
 40
0.9
  1
DDM00 O 1196
  7
ISO
 72
     1
 11
209049.749
 21
439035.639
 31
0.0
100
AcDbText
 73
     2
  0
TEXT
  5
1AB8
330
1CE1
100
AcDbEntity
  8
0
 62
     7
100
AcDbText
 10
209175.195518
 20
439016.941
 30
0.0
 40
0.9
  1
DDM00 O 1238
  7
ISO
 72
     1
 11
209179.535
 21
439017.391
 31
0.0
100
AcDbText
 73
     2
  0
MTEXT
  5
1AB9
330
1CE1
100
AcDbEntity
  8
Z02
 62
     7
100
AcDbMText
 10
209041.479
 20
439072.451585
 30
0.0
 40
2.0
 41
0.0
 46
0.0
 71
     7
 72
     1
  1
21
  7
ISO
 73
     2
 44
0.6
1001
ToXml
1000
position=209041.479,439072.24
1000
ngdw_id=0
  0
MTEXT
  5
1ABA
330
1CE1
100
AcDbEntity
  8
Z02
 62
     7
100
AcDbMText
 10
209451.717
 20
439019.347585
 30
0.0
 40
2.0
 41
0.0
 46
0.0
 71
     7
 72
     1
  1
7
  7
ISO
 73
     2
 44
0.6
1001
ToXml
1000
position=209451.717,439019.136
1000
ngdw_id=0
  0
LINE
  5
1ABB
330
1CE1
100
AcDbEntity
  8
B01
 62
     7
100
AcDbLine
 10
208930.412
 20
438831.236
 30
0.0
 11
208920.446
 21
438833.165
 31
0.0
1001
ToXml
1000
boogpunt1=
1000
boogpunt2=
1000
boogpunt3=
1000
ngdw_id=0
  0
LINE
  5
1ABC
330
1CE1
100
AcDbEntity
  8
B01
 62
     7
100
AcDbLine
 10
209202.209
 20
438721.706
 30
0.0
 11
209198.159
 21
438724.264
 31
0.0
1001
ToXml
1000
boogpunt1=
1000
boogpunt2=
1000
boogpunt3=
1000
ngdw_id=0
  0
LINE
  5
1ABD
330
1CE1
100
AcDbEntity
  8
B01
 62
     7
100
AcDbLine
 10
209195.997
 20
438726.812
 30
0.0
 11
209201.834
 21
438735.681
 31
0.0
1001
ToXml
1000
boogpunt1=
1000
boogpunt2=
1000
boogpunt3=
1000
ngdw_id=0
  0
LINE
  5
1ABE
330
1CE1
100
AcDbEntity
  8
B01
 62
     7
100
AcDbLine
 10
209511.763
 20
438994.96
 30
0.0
 11
209512.962
 21
438994.91
 31
0.0
1001
ToXml
1000
boogpunt1=
1000
boogpunt2=
1000
boogpunt3=
1000
ngdw_id=0
  0
LINE
  5
1ABF
330
1CE1
100
AcDbEntity
  8
B01
 62
     7
100
AcDbLine
 10
209512.962
 20
438994.91
 30
0.0
 11
209512.781
 21
438990.614
 31
0.0
1001
ToXml
1000
boogpunt1=
1000
boogpunt2=
1000
boogpunt3=
1000
ngdw_id=0
  0
LINE
  5
1AC0
330
1CE1
100
AcDbEntity
  8
B01
 62
     7
100
AcDbLine
 10
209512.781
 20
438990.614
 30
0.0
 11
209502.144
 21
438991.061
 31
0.0
1001
ToXml
1000
boogpunt1=
1000
boogpunt2=
1000
boogpunt3=
1000
ngdw_id=0
  0
LINE
  5
1AC1
330
1CE1
100
AcDbEntity
  8
B01
 62
     7
100
AcDbLine
 10
209502.144
 20
438991.061
 30
0.0
 11
209502.52
 21
439000.0
 31
0.0
1001
ToXml
1000
boogpunt1=
1000
boogpunt2=
1000
boogpunt3=
1000
ngdw_id=0
  0
LINE
  5
1AC2
330
1CE1
100
AcDbEntity
  8
B01
 62
     7
100
AcDbLine
 10
209511.975
 20
439000.0
 30
0.0
 11
209511.763
 21
438994.96
 31
0.0
1001
ToXml
1000
boogpunt1=
1000
boogpunt2=
1000
boogpunt3=
1000
ngdw_id=0
  0
LINE
  5
1AC3
330
1CE1
100
AcDbEntity
  8
B01
 62
     7
100
AcDbLine
 10
209631.365
 20
439000.0
 30
0.0
 11
209629.611
 21
438992.584
 31
0.0
1001
ToXml
1000
boogpunt1=
1000
boogpunt2=
1000
boogpunt3=
1000
ngdw_id=0
  0
LINE
  5
1AC4
330
1CE1
100
AcDbEntity
  8
B01
 62
     7
100
AcDbLine
 10
209629.611
 20
438992.584
 30
0.0
 11
209618.005
 21
438995.387
 31
0.0
1001
ToXml
1000
boogpunt1=
1000
boogpunt2=
1000
boogpunt3=
1000
ngdw_id=0
  0
LINE
  5
1AC5
330
1CE1
100
AcDbEntity
  8
B01
 62
     7
100
AcDbLine
 10
209618.005
 20
438995.387
 30
0.0
 11
209618.256
 21
438996.222
 31
0.0
1001
ToXml
1000
boogpunt1=
1000
boogpunt2=
1000
boogpunt3=
1000
ngdw_id=0
  0
LINE
  5
1AC6
330
1CE1
100
AcDbEntity
  8
B01
 62
     7
100
AcDbLine
 10
209618.256
 20
438996.222
 30
0.0
 11
209611.677
 21
438997.863
 31
0.0
1001
ToXml
1000
boogpunt1=
1000
boogpunt2=
1000
boogpunt3=
1000
ngdw_id=0
  0
LINE
  5
1AC7
330
1CE1
100
AcDbEntity
  8
B01
 62
     7
100
AcDbLine
 10
209611.677
 20
438997.863
 30
0.0
 11
209612.182
 21
439000.0
 31
0.0
1001
ToXml
1000
boogpunt1=
1000
boogpunt2=
1000
boogpunt3=
1000
ngdw_id=0
  0
LINE
  5
1AC8
330
1CE1
100
AcDbEntity
  8
B01
 62
     7
100
AcDbLine
 10
209151.799
 20
438553.02
 30
0.0
 11
209155.455
 21
438551.277
 31
0.0
1001
ToXml
1000
boogpunt1=
1000
boogpunt2=
1000
boogpunt3=
1000
ngdw_id=0
  0
LINE
  5
1AC9
330
1CE1
100
AcDbEntity
  8
B01
 62
     7
100
AcDbLine
 10
209155.455
 20
438551.277
 30
0.0
 11
209157.176
 21
438554.887
 31
0.0
1001
ToXml
1000
boogpunt1=
1000
boogpunt2=
1000
boogpunt3=
1000
ngdw_id=0
  0
LINE
  5
1ACA
330
1CE1
100
AcDbEntity
  8
B01
 62
     7
100
AcDbLine
 10
209157.176
 20
438554.887
 30
0.0
 11
209162.592
 21
438552.304
 31
0.0
1001
ToXml
1000
boogpunt1=
1000
boogpunt2=
1000
boogpunt3=
1000
ngdw_id=0
  0
LINE
  5
1ACB
330
1CE1
100
AcDbEntity
  8
B01
 62
     7
100
AcDbLine
 10
209162.592
 20
438552.304
 30
0.0
 11
209158.804
 21
438544.361
 31
0.0
1001
ToXml
1000
boogpunt1=
1000
boogpunt2=
1000
boogpunt3=
1000
ngdw_id=0
  0
LINE
  5
1ACC
330
1CE1
100
AcDbEntity
  8
B01
 62
     7
100
AcDbLine
 10
209158.804
 20
438544.361
 30
0.0
 11
209158.172
 21
438544.663
 31
0.0
1001
ToXml
1000
boogpunt1=
1000
boogpunt2=
1000
boogpunt3=
1000
ngdw_id=0
  0
LINE
  5
1ACD
330
1CE1
100
AcDbEntity
  8
B01
 62
     7
100
AcDbLine
 10
209158.172
 20
438544.663
 30
0.0
 11
209155.189
 21
438538.409
 31
0.0
1001
ToXml
1000
boogpunt1=
1000
boogpunt2=
1000
boogpunt3=
1000
ngdw_id=0
  0
LINE
  5
1ACE
330
1CE1
100
AcDbEntity
  8
B01
 62
     7
100
AcDbLine
 10
209155.189
 20
438538.409
 30
0.0
 11
209147.357
 21
438542.145
 31
0.0
1001
ToXml
1000
boogpunt1=
1000
boogpunt2=
1000
boogpunt3=
1000
ngdw_id=0
  0
LINE
  5
1ACF
330
1CE1
100
AcDbEntity
  8
B01
 62
     7
100
AcDbLine
 10
209147.357
 20
438542.145
 30
0.0
 11
209150.075
 21
438547.842
 31
0.0
1001
ToXml
1000
boogpunt1=
1000
boogpunt2=
1000
boogpunt3=
1000
ngdw_id=0
  0
LINE
  5
1AD0
330
1CE1
100
AcDbEntity
  8
B01
 62
     7
100
AcDbLine
 10
209150.075
 20
438547.842
 30
0.0
 11
209149.468
 21
438548.132
 31
0.0
1001
ToXml
1000
boogpunt1=
1000
boogpunt2=
1000
boogpunt3=
1000
ngdw_id=0
  0
LINE
  5
1AD1
330
1CE1
100
AcDbEntity
  8
B01
 62
     7
100
AcDbLine
 10
209149.468
 20
438548.132
 30
0.0
 11
209151.799
 21
438553.02
 31
0.0
1001
ToXml
1000
boogpunt1=
1000
boogpunt2=
1000
boogpunt3=
1000
ngdw_id=0
  0
LINE
  5
1AD2
330
1CE1
100
AcDbEntity
  8
B01
 62
     7
100
AcDbLine
 10
209106.403
 20
438506.307
 30
0.0
 11
209114.287
 21
438502.56
 31
0.0
1001
ToXml
1000
boogpunt1=
1000
boogpunt2=
1000
boogpunt3=
1000
ngdw_id=0
  0
LINE
  5
1AD3
330
1CE1
100
AcDbEntity
  8
B01
 62
     7
100
AcDbLine
 10
209114.287
 20
438502.56
 30
0.0
 11
209107.865
 21
438489.05
 31
0.0
1001
ToXml
1000
boogpunt1=
1000
boogpunt2=
1000
boogpunt3=
1000
ngdw_id=0
  0
LINE
  5
1AD4
330
1CE1
100
AcDbEntity
  8
B01
 62
     7
100
AcDbLine
 10
209107.865
 20
438489.05
 30
0.0
 11
209099.981
 21
438492.798
 31
0.0
1001
ToXml
1000
boogpunt1=
1000
boogpunt2=
1000
boogpunt3=
1000
ngdw_id=0
  0
LINE
  5
1AD5
330
1CE1
100
AcDbEntity
  8
B01
 62
     7
100
AcDbLine
 10
209099.981
 20
438492.798
 30
0.0
 11
209103.915
 21
438501.074
 31
0.0
1001
ToXml
1000
boogpunt1=
1000
boogpunt2=
1000
boogpunt3=
1000
ngdw_id=0
  0
LINE
  5
1AD6
330
1CE1
100
AcDbEntity
  8
B01
 62
     7
100
AcDbLine
 10
209198.159
 20
438724.264
 30
0.0
 11
209193.353
 21
438716.655
 31
0.0
1001
ToXml
1000
boogpunt1=
1000
boogpunt2=
1000
boogpunt3=
1000
ngdw_id=0
  0
LINE
  5
1AD7
330
1CE1
100
AcDbEntity
  8
B01
 62
     7
100
AcDbLine
 10
209193.353
 20
438716.655
 30
0.0
 11
209186.927
 21
438720.713
 31
0.0
1001
ToXml
1000
boogpunt1=
1000
boogpunt2=
1000
boogpunt3=
1000
ngdw_id=0
  0
LINE
  5
1AD8
330
1CE1
100
AcDbEntity
  8
B01
 62
     7
100
AcDbLine
 10
209189.235
 20
438724.367
 30
0.0
 11
209192.268
 21
438729.168
 31
0.0
1001
ToXml
1000
boogpunt1=
1000
boogpunt2=
1000
boogpunt3=
1000
ngdw_id=0
  0
LINE
  5
1AD9
330
1CE1
100
AcDbEntity
  8
B01
 62
     7
100
AcDbLine
 10
209192.268
 20
438729.168
 30
0.0
 11
209195.997
 21
438726.812
 31
0.0
1001
ToXml
1000
boogpunt1=
1000
boogpunt2=
1000
boogpunt3=
1000
ngdw_id=0
  0
LINE
  5
1ADA
330
1CE1
100
AcDbEntity
  8
B01
 62
     7
100
AcDbLine
 10
209493.25
 20
438841.734
 30
0.0
 11
209499.396
 21
438839.917
 31
0.0
1001
ToXml
1000
boogpunt1=
1000
boogpunt2=
1000
boogpunt3=
1000
ngdw_id=0
  0
LINE
  5
1ADB
330
1CE1
100
AcDbEntity
  8
B01
 62
     7
100
AcDbLine
 10
209499.396
 20
438839.917
 30
0.0
 11
209497.512
 21
438833.546
 31
0.0
1001
ToXml
1000
boogpunt1=
1000
boogpunt2=
1000
boogpunt3=
1000
ngdw_id=0
  0
LINE
  5
1ADC
330
1CE1
100
AcDbEntity
  8
B01
 62
     7
100
AcDbLine
 10
209497.512
 20
438833.546
 30
0.0
 11
209487.636
 21
438836.466
 31
0.0
1001
ToXml
1000
boogpunt1=
1000
boogpunt2=
1000
boogpunt3=
1000
ngdw_id=0
  0
LINE
  5
1ADD
330
1CE1
100
AcDbEntity
  8
B01
 62
     7
100
AcDbLine
 10
209487.636
 20
438836.466
 30
0.0
 11
209489.379
 21
438842.36
 31
0.0
1001
ToXml
1000
boogpunt1=
1000
boogpunt2=
1000
boogpunt3=
1000
ngdw_id=0
  0
LINE
  5
1ADE
330
1CE1
100
AcDbEntity
  8
B01
 62
     7
100
AcDbLine
 10
208951.06
 20
438459.011
 30
0.0
 11
208949.495
 21
438456.085
 31
0.0
1001
ToXml
1000
boogpunt1=
1000
boogpunt2=
1000
boogpunt3=
1000
ngdw_id=0
  0
LINE
  5
1ADF
330
1CE1
100
AcDbEntity
  8
B01
 62
     7
100
AcDbLine
 10
208949.495
 20
438456.085
 30
0.0
 11
208943.813
 21
438459.124
 31
0.0
1001
ToXml
1000
boogpunt1=
1000
boogpunt2=
1000
boogpunt3=
1000
ngdw_id=0
  0
LINE
  5
1AE0
330
1CE1
100
AcDbEntity
  8
B01
 62
     7
100
AcDbLine
 10
208943.813
 20
438459.124
 30
0.0
 11
208944.182
 21
438459.814
 31
0.0
1001
ToXml
1000
boogpunt1=
1000
boogpunt2=
1000
boogpunt3=
1000
ngdw_id=0
  0
LINE
  5
1AE1
330
1CE1
100
AcDbEntity
  8
B01
 62
     7
100
AcDbLine
 10
208944.182
 20
438459.814
 30
0.0
 11
208938.209
 21
438463.008
 31
0.0
1001
ToXml
1000
boogpunt1=
1000
boogpunt2=
1000
boogpunt3=
1000
ngdw_id=0
  0
LINE
  5
1AE2
330
1CE1
100
AcDbEntity
  8
B01
 62
     7
100
AcDbLine
 10
208938.209
 20
438463.008
 30
0.0
 11
208942.513
 21
438471.056
 31
0.0
1001
ToXml
1000
boogpunt1=
1000
boogpunt2=
1000
boogpunt3=
1000
ngdw_id=0
  0
LINE
  5
1AE3
330
1CE1
100
AcDbEntity
  8
B01
 62
     7
100
AcDbLine
 10
208942.513
 20
438471.056
 30
0.0
 11
208954.169
 21
438464.823
 31
0.0
1001
ToXml
1000
boogpunt1=
1000
boogpunt2=
1000
boogpunt3=
1000
ngdw_id=0
  0
LINE
  5
1AE4
330
1CE1
100
AcDbEntity
  8
B01
 62
     7
100
AcDbLine
 10
208954.169
 20
438464.823
 30
0.0
 11
208952.719
 21
438462.112
 31
0.0
1001
ToXml
1000
boogpunt1=
1000
boogpunt2=
1000
boogpunt3=
1000
ngdw_id=0
  0
LINE
  5
1AE5
330
1CE1
100
AcDbEntity
  8
B11
 62
     7
100
AcDbLine
 10
209103.915
 20
438501.074
 30
0.0
 11
209100.479
 21
438502.78
 31
0.0
1001
ToXml
1000
boogpunt1=
1000
boogpunt2=
1000
boogpunt3=
1000
ngdw_id=0
  0
LINE
  5
1AE6
330
1CE1
100
AcDbEntity
  8
B11
 62
     7
100
AcDbLine
 10
209100.479
 20
438502.78
 30
0.0
 11
209101.195
 21
438504.381
 31
0.0
1001
ToXml
1000
boogpunt1=
1000
boogpunt2=
1000
boogpunt3=
1000
ngdw_id=0
  0
LINE
  5
1AE7
330
1CE1
100
AcDbEntity
  8
B11
 62
     7
100
AcDbLine
 10
209101.195
 20
438504.381
 30
0.0
 11
209087.553
 21
438511.245
 31
0.0
1001
ToXml
1000
boogpunt1=
1000
boogpunt2=
1000
boogpunt3=
1000
ngdw_id=0
  0
LINE
  5
1AE8
330
1CE1
100
AcDbEntity
  8
B11
 62
     7
100
AcDbLine
 10
209087.553
 20
438511.245
 30
0.0
 11
209090.87
 21
438517.756
 31
0.0
1001
ToXml
1000
boogpunt1=
1000
boogpunt2=
1000
boogpunt3=
1000
ngdw_id=0
  0
LINE
  5
1AE9
330
1CE1
100
AcDbEntity
  8
B11
 62
     7
100
AcDbLine
 10
209090.87
 20
438517.756
 30
0.0
 11
209104.259
 21
438511.168
 31
0.0
1001
ToXml
1000
boogpunt1=
1000
boogpunt2=
1000
boogpunt3=
1000
ngdw_id=0
  0
LINE
  5
1AEA
330
1CE1
100
AcDbEntity
  8
B11
 62
     7
100
AcDbLine
 10
209104.259
 20
438511.168
 30
0.0
 11
209102.998
 21
438508.076
 31
0.0
1001
ToXml
1000
boogpunt1=
1000
boogpunt2=
1000
boogpunt3=
1000
ngdw_id=0
  0
LINE
  5
1AEB
330
1CE1
100
AcDbEntity
  8
B11
 62
     7
100
AcDbLine
 10
209102.998
 20
438508.076
 30
0.0
 11
209106.403
 21
438506.307
 31
0.0
1001
ToXml
1000
boogpunt1=
1000
boogpunt2=
1000
boogpunt3=
1000
ngdw_id=0
  0
LINE
  5
1AEC
330
1CE1
100
AcDbEntity
  8
B11
 62
     7
100
AcDbLine
 10
209186.927
 20
438720.713
 30
0.0
 11
209184.02
 21
438722.62
 31
0.0
1001
ToXml
1000
boogpunt1=
1000
boogpunt2=
1000
boogpunt3=
1000
ngdw_id=0
  0
LINE
  5
1AED
330
1CE1
100
AcDbEntity
  8
B11
 62
     7
100
AcDbLine
 10
209184.02
 20
438722.62
 30
0.0
 11
209186.327
 21
438726.317
 31
0.0
1001
ToXml
1000
boogpunt1=
1000
boogpunt2=
1000
boogpunt3=
1000
ngdw_id=0
  0
LINE
  5
1AEE
330
1CE1
100
AcDbEntity
  8
B11
 62
     7
100
AcDbLine
 10
209186.327
 20
438726.317
 30
0.0
 11
209189.235
 21
438724.367
 31
0.0
1001
ToXml
1000
boogpunt1=
1000
boogpunt2=
1000
boogpunt3=
1000
ngdw_id=0
  0
LINE
  5
1AEF
330
1CE1
100
AcDbEntity
  8
B11
 62
     7
100
AcDbLine
 10
209489.379
 20
438842.36
 30
0.0
 11
209485.964
 21
438843.301
 31
0.0
1001
ToXml
1000
boogpunt1=
1000
boogpunt2=
1000
boogpunt3=
1000
ngdw_id=0
  0
LINE
  5
1AF0
330
1CE1
100
AcDbEntity
  8
B11
 62
     7
100
AcDbLine
 10
209485.964
 20
438843.301
 30
0.0
 11
209487.237
 21
438848.558
 31
0.0
1001
ToXml
1000
boogpunt1=
1000
boogpunt2=
1000
boogpunt3=
1000
ngdw_id=0
  0
LINE
  5
1AF1
330
1CE1
100
AcDbEntity
  8
B11
 62
     7
100
AcDbLine
 10
209487.237
 20
438848.558
 30
0.0
 11
209494.513
 21
438846.36
 31
0.0
1001
ToXml
1000
boogpunt1=
1000
boogpunt2=
1000
boogpunt3=
1000
ngdw_id=0
  0
LINE
  5
1AF2
330
1CE1
100
AcDbEntity
  8
B11
 62
     7
100
AcDbLine
 10
209494.513
 20
438846.36
 30
0.0
 11
209493.25
 21
438841.734
 31
0.0
1001
ToXml
1000
boogpunt1=
1000
boogpunt2=
1000
boogpunt3=
1000
ngdw_id=0
  0
LINE
  5
1AF3
330
1CE1
100
AcDbEntity
  8
B11
 62
     7
100
AcDbLine
 10
209628.302
 20
438822.83
 30
0.0
 11
209630.243
 21
438826.39
 31
0.0
1001
ToXml
1000
boogpunt1=
1000
boogpunt2=
1000
boogpunt3=
1000
ngdw_id=0
  0
LINE
  5
1AF4
330
1CE1
100
AcDbEntity
  8
B11
 62
     7
100
AcDbLine
 10
209630.243
 20
438826.39
 30
0.0
 11
209624.025
 21
438829.549
 31
0.0
1001
ToXml
1000
boogpunt1=
1000
boogpunt2=
1000
boogpunt3=
1000
ngdw_id=0
  0
LINE
  5
1AF5
330
1CE1
100
AcDbEntity
  8
B11
 62
     7
100
AcDbLine
 10
209624.025
 20
438829.549
 30
0.0
 11
209624.475
 21
438830.551
 31
0.0
1001
ToXml
1000
boogpunt1=
1000
boogpunt2=
1000
boogpunt3=
1000
ngdw_id=0
  0
LINE
  5
1AF6
330
1CE1
100
AcDbEntity
  8
B11
 62
     7
100
AcDbLine
 10
209624.475
 20
438830.551
 30
0.0
 11
209624.813
 21
438831.305
 31
0.0
1001
ToXml
1000
boogpunt1=
1000
boogpunt2=
1000
boogpunt3=
1000
ngdw_id=0
  0
LINE
  5
1AF7
330
1CE1
100
AcDbEntity
  8
B11
 62
     7
100
AcDbLine
 10
209624.813
 20
438831.305
 30
0.0
 11
209598.152
 21
438843.697
 31
0.0
1001
ToXml
1000
boogpunt1=
1000
boogpunt2=
1000
boogpunt3=
1000
ngdw_id=0
  0
LINE
  5
1AF8
330
1CE1
100
AcDbEntity
  8
B11
 62
     7
100
AcDbLine
 10
209598.152
 20
438843.697
 30
0.0
 11
209597.923
 21
438843.157
 31
0.0
1001
ToXml
1000
boogpunt1=
1000
boogpunt2=
1000
boogpunt3=
1000
ngdw_id=0
  0
LINE
  5
1AF9
330
1CE1
100
AcDbEntity
  8
B11
 62
     7
100
AcDbLine
 10
209597.923
 20
438843.157
 30
0.0
 11
209595.268
 21
438836.899
 31
0.0
1001
ToXml
1000
boogpunt1=
1000
boogpunt2=
1000
boogpunt3=
1000
ngdw_id=0
  0
LINE
  5
1AFA
330
1CE1
100
AcDbEntity
  8
B11
 62
     7
100
AcDbLine
 10
209595.268
 20
438836.899
 30
0.0
 11
209611.388
 21
438829.636
 31
0.0
1001
ToXml
1000
boogpunt1=
1000
boogpunt2=
1000
boogpunt3=
1000
ngdw_id=0
  0
LINE
  5
1AFB
330
1CE1
100
AcDbEntity
  8
B11
 62
     7
100
AcDbLine
 10
209611.388
 20
438829.636
 30
0.0
 11
209612.272
 21
438831.392
 31
0.0
1001
ToXml
1000
boogpunt1=
1000
boogpunt2=
1000
boogpunt3=
1000
ngdw_id=0
  0
LINE
  5
1AFC
330
1CE1
100
AcDbEntity
  8
B11
 62
     7
100
AcDbLine
 10
209612.272
 20
438831.392
 30
0.0
 11
209614.085
 21
438830.351
 31
0.0
1001
ToXml
1000
boogpunt1=
1000
boogpunt2=
1000
boogpunt3=
1000
ngdw_id=0
  0
LINE
  5
1AFD
330
1CE1
100
AcDbEntity
  8
B11
 62
     7
100
AcDbLine
 10
209163.043
 20
438564.863
 30
0.0
 11
209166.62
 21
438563.042
 31
0.0
1001
ToXml
1000
boogpunt1=
1000
boogpunt2=
1000
boogpunt3=
1000
ngdw_id=0
  0
LINE
  5
1AFE
330
1CE1
100
AcDbEntity
  8
B11
 62
     7
100
AcDbLine
 10
209166.62
 20
438563.042
 30
0.0
 11
209169.624
 21
438569.081
 31
0.0
1001
ToXml
1000
boogpunt1=
1000
boogpunt2=
1000
boogpunt3=
1000
ngdw_id=0
  0
LINE
  5
1AFF
330
1CE1
100
AcDbEntity
  8
B11
 62
     7
100
AcDbLine
 10
209169.624
 20
438569.081
 30
0.0
 11
209165.961
 21
438570.983
 31
0.0
1001
ToXml
1000
boogpunt1=
1000
boogpunt2=
1000
boogpunt3=
1000
ngdw_id=0
  0
LINE
  5
1B00
330
1CE1
100
AcDbEntity
  8
B11
 62
     7
100
AcDbLine
 10
208951.06
 20
438459.011
 30
0.0
 11
208951.662
 21
438458.752
 31
0.0
1001
ToXml
1000
boogpunt1=
1000
boogpunt2=
1000
boogpunt3=
1000
ngdw_id=0
  0
LINE
  5
1B01
330
1CE1
100
AcDbEntity
  8
B11
 62
     7
100
AcDbLine
 10
208951.662
 20
438458.752
 30
0.0
 11
208952.523
 21
438458.607
 31
0.0
1001
ToXml
1000
boogpunt1=
1000
boogpunt2=
1000
boogpunt3=
1000
ngdw_id=0
  0
LINE
  5
1B02
330
1CE1
100
AcDbEntity
  8
B11
 62
     7
100
AcDbLine
 10
208952.523
 20
438458.607
 30
0.0
 11
208953.556
 21
438459.15
 31
0.0
1001
ToXml
1000
boogpunt1=
1000
boogpunt2=
1000
boogpunt3=
1000
ngdw_id=0
  0
LINE
  5
1B03
330
1CE1
100
AcDbEntity
  8
B11
 62
     7
100
AcDbLine
 10
208953.556
 20
438459.15
 30
0.0
 11
208953.988
 21
438459.952
 31
0.0
1001
ToXml
1000
boogpunt1=
1000
boogpunt2=
1000
boogpunt3=
1000
ngdw_id=0
  0
LINE
  5
1B04
330
1CE1
100
AcDbEntity
  8
B11
 62
     7
100
AcDbLine
 10
208953.988
 20
438459.952
 30
0.0
 11
208953.904
 21
438461.043
 31
0.0
1001
ToXml
1000
boogpunt1=
1000
boogpunt2=
1000
boogpunt3=
1000
ngdw_id=0
  0
LINE
  5
1B05
330
1CE1
100
AcDbEntity
  8
B11
 62
     7
100
AcDbLine
 10
208953.904
 20
438461.043
 30
0.0
 11
208953.36
 21
438461.732
 31
0.0
1001
ToXml
1000
boogpunt1=
1000
boogpunt2=
1000
boogpunt3=
1000
ngdw_id=0
  0
LINE
  5
1B06
330
1CE1
100
AcDbEntity
  8
B11
 62
     7
100
AcDbLine
 10
208953.36
 20
438461.732
 30
0.0
 11
208952.719
 21
438462.112
 31
0.0
1001
ToXml
1000
boogpunt1=
1000
boogpunt2=
1000
boogpunt3=
1000
ngdw_id=0
  0
LINE
  5
1B07
330
1CE1
100
AcDbEntity
  8
B01
 62
     7
100
AcDbLine
 10
209628.302
 20
438822.83
 30
0.0
 11
209628.888
 21
438822.52
 31
0.0
1001
ToXml
1000
boogpunt1=
1000
boogpunt2=
1000
boogpunt3=
1000
ngdw_id=0
  0
LINE
  5
1B08
330
1CE1
100
AcDbEntity
  8
B01
 62
     7
100
AcDbLine
 10
209628.888
 20
438822.52
 30
0.0
 11
209626.955
 21
438818.866
 31
0.0
1001
ToXml
1000
boogpunt1=
1000
boogpunt2=
1000
boogpunt3=
1000
ngdw_id=0
  0
LINE
  5
1B09
330
1CE1
100
AcDbEntity
  8
B01
 62
     7
100
AcDbLine
 10
209625.709
 20
438816.513
 30
0.0
 11
209625.483
 21
438816.085
 31
0.0
1001
ToXml
1000
boogpunt1=
1000
boogpunt2=
1000
boogpunt3=
1000
ngdw_id=0
  0
LINE
  5
1B0A
330
1CE1
100
AcDbEntity
  8
B01
 62
     7
100
AcDbLine
 10
209625.483
 20
438816.085
 30
0.0
 11
209614.389
 21
438821.954
 31
0.0
1001
ToXml
1000
boogpunt1=
1000
boogpunt2=
1000
boogpunt3=
1000
ngdw_id=0
  0
LINE
  5
1B0B
330
1CE1
100
AcDbEntity
  8
B01
 62
     7
100
AcDbLine
 10
209614.389
 20
438821.954
 30
0.0
 11
209612.942
 21
438819.22
 31
0.0
1001
ToXml
1000
boogpunt1=
1000
boogpunt2=
1000
boogpunt3=
1000
ngdw_id=0
  0
LINE
  5
1B0C
330
1CE1
100
AcDbEntity
  8
B01
 62
     7
100
AcDbLine
 10
209612.942
 20
438819.22
 30
0.0
 11
209609.235
 21
438821.182
 31
0.0
1001
ToXml
1000
boogpunt1=
1000
boogpunt2=
1000
boogpunt3=
1000
ngdw_id=0
  0
LINE
  5
1B0D
330
1CE1
100
AcDbEntity
  8
B01
 62
     7
100
AcDbLine
 10
209609.235
 20
438821.182
 30
0.0
 11
209614.085
 21
438830.351
 31
0.0
1001
ToXml
1000
boogpunt1=
1000
boogpunt2=
1000
boogpunt3=
1000
ngdw_id=0
  0
LINE
  5
1B0E
330
1CE1
100
AcDbEntity
  8
B11
 62
     7
100
AcDbLine
 10
209626.955
 20
438818.866
 30
0.0
 11
209627.62
 21
438818.614
 31
0.0
1001
ToXml
1000
boogpunt1=
1000
boogpunt2=
1000
boogpunt3=
1000
ngdw_id=0
  0
LINE
  5
1B0F
330
1CE1
100
AcDbEntity
  8
B11
 62
     7
100
AcDbLine
 10
209627.62
 20
438818.614
 30
0.0
 11
209627.96
 21
438817.938
 31
0.0
1001
ToXml
1000
boogpunt1=
1000
boogpunt2=
1000
boogpunt3=
1000
ngdw_id=0
  0
LINE
  5
1B10
330
1CE1
100
AcDbEntity
  8
B11
 62
     7
100
AcDbLine
 10
209627.96
 20
438817.938
 30
0.0
 11
209627.155
 21
438816.27
 31
0.0
1001
ToXml
1000
boogpunt1=
1000
boogpunt2=
1000
boogpunt3=
1000
ngdw_id=0
  0
LINE
  5
1B11
330
1CE1
100
AcDbEntity
  8
B11
 62
     7
100
AcDbLine
 10
209627.155
 20
438816.27
 30
0.0
 11
209626.412
 21
438816.163
 31
0.0
1001
ToXml
1000
boogpunt1=
1000
boogpunt2=
1000
boogpunt3=
1000
ngdw_id=0
  0
LINE
  5
1B12
330
1CE1
100
AcDbEntity
  8
B11
 62
     7
100
AcDbLine
 10
209626.412
 20
438816.163
 30
0.0
 11
209625.709
 21
438816.513
 31
0.0
1001
ToXml
1000
boogpunt1=
1000
boogpunt2=
1000
boogpunt3=
1000
ngdw_id=0
  0
LINE
  5
1B13
330
1CE1
100
AcDbEntity
  8
B01
 62
     7
100
AcDbLine
 10
209156.033
 20
438575.718
 30
0.0
 11
209165.961
 21
438570.983
 31
0.0
1001
ToXml
1000
boogpunt1=
1000
boogpunt2=
1000
boogpunt3=
1000
ngdw_id=0
  0
LINE
  5
1B14
330
1CE1
100
AcDbEntity
  8
B01
 62
     7
100
AcDbLine
 10
209163.043
 20
438564.863
 30
0.0
 11
209153.114
 21
438569.599
 31
0.0
1001
ToXml
1000
boogpunt1=
1000
boogpunt2=
1000
boogpunt3=
1000
ngdw_id=0
  0
LINE
  5
1B15
330
1CE1
100
AcDbEntity
  8
B01
 62
     7
100
AcDbLine
 10
209153.114
 20
438569.599
 30
0.0
 11
209156.033
 21
438575.718
 31
0.0
1001
ToXml
1000
boogpunt1=
1000
boogpunt2=
1000
boogpunt3=
1000
ngdw_id=0
  0
LINE
  5
1B16
330
1CE1
100
AcDbEntity
  8
B01
 62
     7
100
AcDbLine
 10
208929.148
 20
438827.391
 30
0.0
 11
208929.024
 21
438826.753
 31
0.0
1001
ToXml
1000
boogpunt1=
1000
boogpunt2=
1000
boogpunt3=
1000
ngdw_id=0
  0
LINE
  5
1B17
330
1CE1
100
AcDbEntity
  8
B01
 62
     7
100
AcDbLine
 10
208929.024
 20
438826.753
 30
0.0
 11
208933.902
 21
438825.813
 31
0.0
1001
ToXml
1000
boogpunt1=
1000
boogpunt2=
1000
boogpunt3=
1000
ngdw_id=0
  0
LINE
  5
1B18
330
1CE1
100
AcDbEntity
  8
B01
 62
     7
100
AcDbLine
 10
208933.902
 20
438825.813
 30
0.0
 11
208934.946
 21
438825.61
 31
0.0
1001
ToXml
1000
boogpunt1=
1000
boogpunt2=
1000
boogpunt3=
1000
ngdw_id=0
  0
LINE
  5
1B19
330
1CE1
100
AcDbEntity
  8
B01
 62
     7
100
AcDbLine
 10
208934.946
 20
438825.61
 30
0.0
 11
208933.842
 21
438819.907
 31
0.0
1001
ToXml
1000
boogpunt1=
1000
boogpunt2=
1000
boogpunt3=
1000
ngdw_id=0
  0
LINE
  5
1B1A
330
1CE1
100
AcDbEntity
  8
B01
 62
     7
100
AcDbLine
 10
208933.842
 20
438819.907
 30
0.0
 11
208927.922
 21
438821.051
 31
0.0
1001
ToXml
1000
boogpunt1=
1000
boogpunt2=
1000
boogpunt3=
1000
ngdw_id=0
  0
LINE
  5
1B1B
330
1CE1
100
AcDbEntity
  8
B01
 62
     7
100
AcDbLine
 10
208927.922
 20
438821.051
 30
0.0
 11
208927.902
 21
438820.945
 31
0.0
1001
ToXml
1000
boogpunt1=
1000
boogpunt2=
1000
boogpunt3=
1000
ngdw_id=0
  0
LINE
  5
1B1C
330
1CE1
100
AcDbEntity
  8
B01
 62
     7
100
AcDbLine
 10
208930.412
 20
438831.236
 30
0.0
 11
208929.649
 21
438827.295
 31
0.0
1001
ToXml
1000
boogpunt1=
1000
boogpunt2=
1000
boogpunt3=
1000
ngdw_id=0
  0
LINE
  5
1B1D
330
1CE1
100
AcDbEntity
  8
B01
 62
     7
100
AcDbLine
 10
208929.649
 20
438827.295
 30
0.0
 11
208929.148
 21
438827.391
 31
0.0
1001
ToXml
1000
boogpunt1=
1000
boogpunt2=
1000
boogpunt3=
1000
ngdw_id=0
  0
LINE
  5
1B1E
330
1CE1
100
AcDbEntity
  8
B01
 62
     7
100
AcDbLine
 10
209188.134
 20
438451.024
 30
0.0
 11
209195.849
 21
438447.273
 31
0.0
1001
ToXml
1000
boogpunt1=
1000
boogpunt2=
1000
boogpunt3=
1000
ngdw_id=0
  0
LINE
  5
1B1F
330
1CE1
100
AcDbEntity
  8
B01
 62
     7
100
AcDbLine
 10
209195.849
 20
438447.273
 30
0.0
 11
209195.215
 21
438445.969
 31
0.0
1001
ToXml
1000
boogpunt1=
1000
boogpunt2=
1000
boogpunt3=
1000
ngdw_id=0
  0
LINE
  5
1B20
330
1CE1
100
AcDbEntity
  8
B01
 62
     7
100
AcDbLine
 10
209195.215
 20
438445.969
 30
0.0
 11
209198.282
 21
438444.478
 31
0.0
1001
ToXml
1000
boogpunt1=
1000
boogpunt2=
1000
boogpunt3=
1000
ngdw_id=0
  0
LINE
  5
1B21
330
1CE1
100
AcDbEntity
  8
B01
 62
     7
100
AcDbLine
 10
209202.209
 20
438721.706
 30
0.0
 11
209208.48
 21
438731.392
 31
0.0
1001
ToXml
1000
boogpunt1=
1000
boogpunt2=
1000
boogpunt3=
1000
ngdw_id=0
  0
LINE
  5
1B22
330
1CE1
100
AcDbEntity
  8
B01
 62
     7
100
AcDbLine
 10
209208.48
 20
438731.392
 30
0.0
 11
209201.834
 21
438735.681
 31
0.0
1001
ToXml
1000
boogpunt1=
1000
boogpunt2=
1000
boogpunt3=
1000
ngdw_id=0
  0
LINE
  5
1B23
330
1CE1
100
AcDbEntity
  8
B01
 62
     7
100
AcDbLine
 10
209577.692
 20
438763.219
 30
0.0
 11
209575.239
 21
438758.574
 31
0.0
1001
ToXml
1000
boogpunt1=
1000
boogpunt2=
1000
boogpunt3=
1000
ngdw_id=0
  0
LINE
  5
1B24
330
1CE1
100
AcDbEntity
  8
B01
 62
     7
100
AcDbLine
 10
209575.239
 20
438758.574
 30
0.0
 11
209582.433
 21
438754.779
 31
0.0
1001
ToXml
1000
boogpunt1=
1000
boogpunt2=
1000
boogpunt3=
1000
ngdw_id=0
  0
LINE
  5
1B25
330
1CE1
100
AcDbEntity
  8
B01
 62
     7
100
AcDbLine
 10
209584.853
 20
438759.47
 30
0.0
 11
209593.873
 21
438754.815
 31
0.0
1001
ToXml
1000
boogpunt1=
1000
boogpunt2=
1000
boogpunt3=
1000
ngdw_id=0
  0
LINE
  5
1B26
330
1CE1
100
AcDbEntity
  8
B01
 62
     7
100
AcDbLine
 10
209593.873
 20
438754.815
 30
0.0
 11
209590.403
 21
438748.092
 31
0.0
1001
ToXml
1000
boogpunt1=
1000
boogpunt2=
1000
boogpunt3=
1000
ngdw_id=0
  0
LINE
  5
1B27
330
1CE1
100
AcDbEntity
  8
B01
 62
     7
100
AcDbLine
 10
209590.403
 20
438748.092
 30
0.0
 11
209581.383
 21
438752.748
 31
0.0
1001
ToXml
1000
boogpunt1=
1000
boogpunt2=
1000
boogpunt3=
1000
ngdw_id=0
  0
LINE
  5
1B28
330
1CE1
100
AcDbEntity
  8
B01
 62
     7
100
AcDbLine
 10
209581.383
 20
438752.748
 30
0.0
 11
209582.433
 21
438754.779
 31
0.0
1001
ToXml
1000
boogpunt1=
1000
boogpunt2=
1000
boogpunt3=
1000
ngdw_id=0
  0
LINE
  5
1B29
330
1CE1
100
AcDbEntity
  8
B11
 62
     7
100
AcDbLine
 10
209584.853
 20
438759.47
 30
0.0
 11
209577.692
 21
438763.219
 31
0.0
1001
ToXml
1000
boogpunt1=
1000
boogpunt2=
1000
boogpunt3=
1000
ngdw_id=0
  0
LINE
  5
1B2A
330
1CE1
100
AcDbEntity
  8
G01
 62
     7
100
AcDbLine
 10
208978.959
 20
438791.94
 30
0.0
 11
208983.664
 21
438795.968
 31
0.0
1001
ToXml
1000
boogpunt1=
1000
boogpunt2=
1000
boogpunt3=
1000
ngdw_id=0
  0
LINE
  5
1B2B
330
1CE1
100
AcDbEntity
  8
G01
 62
     7
100
AcDbLine
 10
208983.664
 20
438795.968
 30
0.0
 11
209000.22
 21
438807.998
 31
0.0
1001
ToXml
1000
boogpunt1=
1000
boogpunt2=
1000
boogpunt3=
1000
ngdw_id=0
  0
LINE
  5
1B2C
330
1CE1
100
AcDbEntity
  8
G01
 62
     7
100
AcDbLine
 10
209456.311
 20
438910.535
 30
0.0
 11
209459.122
 21
438907.853
 31
0.0
1001
ToXml
1000
boogpunt1=
1000
boogpunt2=
1000
boogpunt3=
1000
ngdw_id=0
  0
LINE
  5
1B2D
330
1CE1
100
AcDbEntity
  8
G01
 62
     7
100
AcDbLine
 10
209459.122
 20
438907.853
 30
0.0
 11
209477.268
 21
438920.322
 31
0.0
1001
ToXml
1000
boogpunt1=
1000
boogpunt2=
1000
boogpunt3=
1000
ngdw_id=0
  0
LINE
  5
1B2E
330
1CE1
100
AcDbEntity
  8
G01
 62
     7
100
AcDbLine
 10
209477.268
 20
438920.322
 30
0.0
 11
209490.962
 21
438929.695
 31
0.0
1001
ToXml
1000
boogpunt1=
1000
boogpunt2=
1000
boogpunt3=
1000
ngdw_id=0
  0
LINE
  5
1B2F
330
1CE1
100
AcDbEntity
  8
G01
 62
     7
100
AcDbLine
 10
209490.962
 20
438929.695
 30
0.0
 11
209502.498
 21
438937.36
 31
0.0
1001
ToXml
1000
boogpunt1=
1000
boogpunt2=
1000
boogpunt3=
1000
ngdw_id=0
  0
LINE
  5
1B30
330
1CE1
100
AcDbEntity
  8
G01
 62
     7
100
AcDbLine
 10
209502.498
 20
438937.36
 30
0.0
 11
209509.872
 21
438941.887
 31
0.0
1001
ToXml
1000
boogpunt1=
1000
boogpunt2=
1000
boogpunt3=
1000
ngdw_id=0
  0
LINE
  5
1B31
330
1CE1
100
AcDbEntity
  8
G01
 62
     7
100
AcDbLine
 10
209509.872
 20
438941.887
 30
0.0
 11
209521.862
 21
438948.982
 31
0.0
1001
ToXml
1000
boogpunt1=
1000
boogpunt2=
1000
boogpunt3=
1000
ngdw_id=0
  0
LINE
  5
1B32
330
1CE1
100
AcDbEntity
  8
G01
 62
     7
100
AcDbLine
 10
209521.862
 20
438948.982
 30
0.0
 11
209532.063
 21
438954.522
 31
0.0
1001
ToXml
1000
boogpunt1=
1000
boogpunt2=
1000
boogpunt3=
1000
ngdw_id=0
  0
LINE
  5
1B33
330
1CE1
100
AcDbEntity
  8
G01
 62
     7
100
AcDbLine
 10
209532.063
 20
438954.522
 30
0.0
 11
209536.055
 21
438956.507
 31
0.0
1001
ToXml
1000
boogpunt1=
1000
boogpunt2=
1000
boogpunt3=
1000
ngdw_id=0
  0
LINE
  5
1B34
330
1CE1
100
AcDbEntity
  8
G01
 62
     7
100
AcDbLine
 10
209536.055
 20
438956.507
 30
0.0
 11
209543.33
 21
438959.709
 31
0.0
1001
ToXml
1000
boogpunt1=
1000
boogpunt2=
1000
boogpunt3=
1000
ngdw_id=0
  0
LINE
  5
1B35
330
1CE1
100
AcDbEntity
  8
G01
 62
     7
100
AcDbLine
 10
209456.311
 20
438910.535
 30
0.0
 11
209467.48
 21
439000.0
 31
0.0
1001
ToXml
1000
boogpunt1=
1000
boogpunt2=
1000
boogpunt3=
1000
ngdw_id=0
  0
LINE
  5
1B36
330
1CE1
100
AcDbEntity
  8
G01
 62
     7
100
AcDbLine
 10
209602.035
 20
438741.094
 30
0.0
 11
209647.135
 21
438821.311
 31
0.0
1001
ToXml
1000
boogpunt1=
1000
boogpunt2=
1000
boogpunt3=
1000
ngdw_id=0
  0
LINE
  5
1B37
330
1CE1
100
AcDbEntity
  8
G01
 62
     7
100
AcDbLine
 10
209602.766
 20
438740.669
 30
0.0
 11
209647.989
 21
438820.923
 31
0.0
1001
ToXml
1000
boogpunt1=
1000
boogpunt2=
1000
boogpunt3=
1000
ngdw_id=0
  0
LINE
  5
1B38
330
1CE1
100
AcDbEntity
  8
G01
 62
     7
100
AcDbLine
 10
208941.138
 20
438517.681
 30
0.0
 11
208996.947
 21
438491.351
 31
0.0
1001
ToXml
1000
boogpunt1=
1000
boogpunt2=
1000
boogpunt3=
1000
ngdw_id=0
  0
LINE
  5
1B39
330
1CE1
100
AcDbEntity
  8
G01
 62
     7
100
AcDbLine
 10
208996.947
 20
438491.351
 30
0.0
 11
208983.909
 21
438465.141
 31
0.0
1001
ToXml
1000
boogpunt1=
1000
boogpunt2=
1000
boogpunt3=
1000
ngdw_id=0
  0
LINE
  5
1B3A
330
1CE1
100
AcDbEntity
  8
G01
 62
     7
100
AcDbLine
 10
208983.909
 20
438465.141
 30
0.0
 11
208990.997
 21
438461.475
 31
0.0
1001
ToXml
1000
boogpunt1=
1000
boogpunt2=
1000
boogpunt3=
1000
ngdw_id=0
  0
LINE
  5
1B3B
330
1CE1
100
AcDbEntity
  8
G01
 62
     7
100
AcDbLine
 10
208990.997
 20
438461.475
 30
0.0
 11
208982.772
 21
438445.071
 31
0.0
1001
ToXml
1000
boogpunt1=
1000
boogpunt2=
1000
boogpunt3=
1000
ngdw_id=0
  0
LINE
  5
1B3C
330
1CE1
100
AcDbEntity
  8
G01
 62
     7
100
AcDbLine
 10
208982.772
 20
438445.071
 30
0.0
 11
208975.591
 21
438448.505
 31
0.0
1001
ToXml
1000
boogpunt1=
1000
boogpunt2=
1000
boogpunt3=
1000
ngdw_id=0
  0
LINE
  5
1B3D
330
1CE1
100
AcDbEntity
  8
G01
 62
     7
100
AcDbLine
 10
208995.794
 20
438600.905
 30
0.0
 11
208967.16
 21
438542.158
 31
0.0
1001
ToXml
1000
boogpunt1=
1000
boogpunt2=
1000
boogpunt3=
1000
ngdw_id=0
  0
LINE
  5
1B3E
330
1CE1
100
AcDbEntity
  8
G01
 62
     7
100
AcDbLine
 10
208944.792
 20
438806.15
 30
0.0
 11
208965.949
 21
438801.333
 31
0.0
1001
ToXml
1000
boogpunt1=
1000
boogpunt2=
1000
boogpunt3=
1000
ngdw_id=0
  0
LINE
  5
1B3F
330
1CE1
100
AcDbEntity
  8
G01
 62
     7
100
AcDbLine
 10
208965.949
 20
438801.333
 30
0.0
 11
208978.407
 21
438800.566
 31
0.0
1001
ToXml
1000
boogpunt1=
1000
boogpunt2=
1000
boogpunt3=
1000
ngdw_id=0
  0
LINE
  5
1B40
330
1CE1
100
AcDbEntity
  8
G01
 62
     7
100
AcDbLine
 10
208978.407
 20
438800.566
 30
0.0
 11
208990.32
 21
438804.599
 31
0.0
1001
ToXml
1000
boogpunt1=
1000
boogpunt2=
1000
boogpunt3=
1000
ngdw_id=0
  0
LINE
  5
1B41
330
1CE1
100
AcDbEntity
  8
G01
 62
     7
100
AcDbLine
 10
208990.32
 20
438804.599
 30
0.0
 11
208998.693
 21
438813.616
 31
0.0
1001
ToXml
1000
boogpunt1=
1000
boogpunt2=
1000
boogpunt3=
1000
ngdw_id=0
  0
LINE
  5
1B42
330
1CE1
100
AcDbEntity
  8
G01
 62
     7
100
AcDbLine
 10
208998.693
 20
438813.616
 30
0.0
 11
209001.704
 21
438819.352
 31
0.0
1001
ToXml
1000
boogpunt1=
1000
boogpunt2=
1000
boogpunt3=
1000
ngdw_id=0
  0
LINE
  5
1B43
330
1CE1
100
AcDbEntity
  8
G01
 62
     7
100
AcDbLine
 10
209001.704
 20
438819.352
 30
0.0
 11
209003.763
 21
438826.335
 31
0.0
1001
ToXml
1000
boogpunt1=
1000
boogpunt2=
1000
boogpunt3=
1000
ngdw_id=0
  0
LINE
  5
1B44
330
1CE1
100
AcDbEntity
  8
G01
 62
     7
100
AcDbLine
 10
209003.763
 20
438826.335
 30
0.0
 11
209005.484
 21
438836.708
 31
0.0
1001
ToXml
1000
boogpunt1=
1000
boogpunt2=
1000
boogpunt3=
1000
ngdw_id=0
  0
LINE
  5
1B45
330
1CE1
100
AcDbEntity
  8
G01
 62
     7
100
AcDbLine
 10
209005.484
 20
438836.708
 30
0.0
 11
209010.172
 21
438864.97
 31
0.0
1001
ToXml
1000
boogpunt1=
1000
boogpunt2=
1000
boogpunt3=
1000
ngdw_id=0
  0
LINE
  5
1B46
330
1CE1
100
AcDbEntity
  8
G01
 62
     7
100
AcDbLine
 10
209010.172
 20
438864.97
 30
0.0
 11
209025.763
 21
438941.769
 31
0.0
1001
ToXml
1000
boogpunt1=
1000
boogpunt2=
1000
boogpunt3=
1000
ngdw_id=0
  0
LINE
  5
1B47
330
1CE1
100
AcDbEntity
  8
G01
 62
     7
100
AcDbLine
 10
208972.407
 20
438952.442
 30
0.0
 11
208944.792
 21
438806.15
 31
0.0
1001
ToXml
1000
boogpunt1=
1000
boogpunt2=
1000
boogpunt3=
1000
ngdw_id=0
  0
LINE
  5
1B48
330
1CE1
100
AcDbEntity
  8
G01
 62
     7
100
AcDbLine
 10
208967.613
 20
438794.596
 30
0.0
 11
208978.959
 21
438791.94
 31
0.0
1001
ToXml
1000
boogpunt1=
1000
boogpunt2=
1000
boogpunt3=
1000
ngdw_id=0
  0
LINE
  5
1B49
330
1CE1
100
AcDbEntity
  8
G01
 62
     7
100
AcDbLine
 10
209406.855
 20
438857.17
 30
0.0
 11
209429.459
 21
438831.988
 31
0.0
1001
ToXml
1000
boogpunt1=
1000
boogpunt2=
1000
boogpunt3=
1000
ngdw_id=0
  0
LINE
  5
1B4A
330
1CE1
100
AcDbEntity
  8
G01
 62
     7
100
AcDbLine
 10
209429.459
 20
438831.988
 30
0.0
 11
209432.196
 21
438829.445
 31
0.0
1001
ToXml
1000
boogpunt1=
1000
boogpunt2=
1000
boogpunt3=
1000
ngdw_id=0
  0
LINE
  5
1B4B
330
1CE1
100
AcDbEntity
  8
G01
 62
     7
100
AcDbLine
 10
209432.196
 20
438829.445
 30
0.0
 11
209434.636
 21
438827.484
 31
0.0
1001
ToXml
1000
boogpunt1=
1000
boogpunt2=
1000
boogpunt3=
1000
ngdw_id=0
  0
LINE
  5
1B4C
330
1CE1
100
AcDbEntity
  8
G01
 62
     7
100
AcDbLine
 10
209434.636
 20
438827.484
 30
0.0
 11
209437.845
 21
438824.976
 31
0.0
1001
ToXml
1000
boogpunt1=
1000
boogpunt2=
1000
boogpunt3=
1000
ngdw_id=0
  0
LINE
  5
1B4D
330
1CE1
100
AcDbEntity
  8
G01
 62
     7
100
AcDbLine
 10
209437.845
 20
438824.976
 30
0.0
 11
209446.658
 21
438818.628
 31
0.0
1001
ToXml
1000
boogpunt1=
1000
boogpunt2=
1000
boogpunt3=
1000
ngdw_id=0
  0
LINE
  5
1B4E
330
1CE1
100
AcDbEntity
  8
G01
 62
     7
100
AcDbLine
 10
209446.658
 20
438818.628
 30
0.0
 11
209450.236
 21
438816.274
 31
0.0
1001
ToXml
1000
boogpunt1=
1000
boogpunt2=
1000
boogpunt3=
1000
ngdw_id=0
  0
LINE
  5
1B4F
330
1CE1
100
AcDbEntity
  8
G01
 62
     7
100
AcDbLine
 10
209450.236
 20
438816.274
 30
0.0
 11
209453.484
 21
438814.323
 31
0.0
1001
ToXml
1000
boogpunt1=
1000
boogpunt2=
1000
boogpunt3=
1000
ngdw_id=0
  0
LINE
  5
1B50
330
1CE1
100
AcDbEntity
  8
G01
 62
     7
100
AcDbLine
 10
209453.484
 20
438814.323
 30
0.0
 11
209457.12
 21
438811.83
 31
0.0
1001
ToXml
1000
boogpunt1=
1000
boogpunt2=
1000
boogpunt3=
1000
ngdw_id=0
  0
LINE
  5
1B51
330
1CE1
100
AcDbEntity
  8
G01
 62
     7
100
AcDbLine
 10
209457.12
 20
438811.83
 30
0.0
 11
209468.547
 21
438805.054
 31
0.0
1001
ToXml
1000
boogpunt1=
1000
boogpunt2=
1000
boogpunt3=
1000
ngdw_id=0
  0
LINE
  5
1B52
330
1CE1
100
AcDbEntity
  8
G01
 62
     7
100
AcDbLine
 10
209468.547
 20
438805.054
 30
0.0
 11
209480.036
 21
438798.521
 31
0.0
1001
ToXml
1000
boogpunt1=
1000
boogpunt2=
1000
boogpunt3=
1000
ngdw_id=0
  0
LINE
  5
1B53
330
1CE1
100
AcDbEntity
  8
G01
 62
     7
100
AcDbLine
 10
209480.036
 20
438798.521
 30
0.0
 11
209538.264
 21
438763.581
 31
0.0
1001
ToXml
1000
boogpunt1=
1000
boogpunt2=
1000
boogpunt3=
1000
ngdw_id=0
  0
LINE
  5
1B54
330
1CE1
100
AcDbEntity
  8
G01
 62
     7
100
AcDbLine
 10
209538.264
 20
438763.581
 30
0.0
 11
209587.615
 21
438734.957
 31
0.0
1001
ToXml
1000
boogpunt1=
1000
boogpunt2=
1000
boogpunt3=
1000
ngdw_id=0
  0
LINE
  5
1B55
330
1CE1
100
AcDbEntity
  8
G01
 62
     7
100
AcDbLine
 10
209009.483
 20
438835.629
 30
0.0
 11
209014.132
 21
438864.235
 31
0.0
1001
ToXml
1000
boogpunt1=
1000
boogpunt2=
1000
boogpunt3=
1000
ngdw_id=0
  0
LINE
  5
1B56
330
1CE1
100
AcDbEntity
  8
G01
 62
     7
100
AcDbLine
 10
209014.132
 20
438864.235
 30
0.0
 11
209030.046
 21
438940.635
 31
0.0
1001
ToXml
1000
boogpunt1=
1000
boogpunt2=
1000
boogpunt3=
1000
ngdw_id=0
  0
LINE
  5
1B57
330
1CE1
100
AcDbEntity
  8
G01
 62
     7
100
AcDbLine
 10
209030.046
 20
438940.635
 30
0.0
 11
209046.022
 21
438937.371
 31
0.0
1001
ToXml
1000
boogpunt1=
1000
boogpunt2=
1000
boogpunt3=
1000
ngdw_id=0
  0
LINE
  5
1B58
330
1CE1
100
AcDbEntity
  8
G01
 62
     7
100
AcDbLine
 10
209046.022
 20
438937.371
 30
0.0
 11
209071.213
 21
439000.0
 31
0.0
1001
ToXml
1000
boogpunt1=
1000
boogpunt2=
1000
boogpunt3=
1000
ngdw_id=0
  0
LINE
  5
1B59
330
1CE1
100
AcDbEntity
  8
G01
 62
     7
100
AcDbLine
 10
209000.22
 20
438807.998
 30
0.0
 11
209005.219
 21
438811.631
 31
0.0
1001
ToXml
1000
boogpunt1=
1000
boogpunt2=
1000
boogpunt3=
1000
ngdw_id=0
  0
LINE
  5
1B5A
330
1CE1
100
AcDbEntity
  8
G01
 62
     7
100
AcDbLine
 10
209005.219
 20
438811.631
 30
0.0
 11
209143.026
 21
438919.7
 31
0.0
1001
ToXml
1000
boogpunt1=
1000
boogpunt2=
1000
boogpunt3=
1000
ngdw_id=0
  0
LINE
  5
1B5B
330
1CE1
100
AcDbEntity
  8
G01
 62
     7
100
AcDbLine
 10
209143.026
 20
438919.7
 30
0.0
 11
209232.529
 21
438986.092
 31
0.0
1001
ToXml
1000
boogpunt1=
1000
boogpunt2=
1000
boogpunt3=
1000
ngdw_id=0
  0
LINE
  5
1B5C
330
1CE1
100
AcDbEntity
  8
G01
 62
     7
100
AcDbLine
 10
209232.529
 20
438986.092
 30
0.0
 11
209252.343
 21
439000.0
 31
0.0
1001
ToXml
1000
boogpunt1=
1000
boogpunt2=
1000
boogpunt3=
1000
ngdw_id=0
  0
LINE
  5
1B5D
330
1CE1
100
AcDbEntity
  8
G01
 62
     7
100
AcDbLine
 10
208963.899
 20
438704.795
 30
0.0
 11
209016.226
 21
438748.838
 31
0.0
1001
ToXml
1000
boogpunt1=
1000
boogpunt2=
1000
boogpunt3=
1000
ngdw_id=0
  0
LINE
  5
1B5E
330
1CE1
100
AcDbEntity
  8
G01
 62
     7
100
AcDbLine
 10
209016.226
 20
438748.838
 30
0.0
 11
209042.831
 21
438769.684
 31
0.0
1001
ToXml
1000
boogpunt1=
1000
boogpunt2=
1000
boogpunt3=
1000
ngdw_id=0
  0
LINE
  5
1B5F
330
1CE1
100
AcDbEntity
  8
G01
 62
     7
100
AcDbLine
 10
209042.831
 20
438769.684
 30
0.0
 11
209095.099
 21
438812.511
 31
0.0
1001
ToXml
1000
boogpunt1=
1000
boogpunt2=
1000
boogpunt3=
1000
ngdw_id=0
  0
LINE
  5
1B60
330
1CE1
100
AcDbEntity
  8
G01
 62
     7
100
AcDbLine
 10
209095.099
 20
438812.511
 30
0.0
 11
209157.168
 21
438860.277
 31
0.0
1001
ToXml
1000
boogpunt1=
1000
boogpunt2=
1000
boogpunt3=
1000
ngdw_id=0
  0
LINE
  5
1B61
330
1CE1
100
AcDbEntity
  8
G01
 62
     7
100
AcDbLine
 10
209157.168
 20
438860.277
 30
0.0
 11
209238.071
 21
438919.63
 31
0.0
1001
ToXml
1000
boogpunt1=
1000
boogpunt2=
1000
boogpunt3=
1000
ngdw_id=0
  0
LINE
  5
1B62
330
1CE1
100
AcDbEntity
  8
G01
 62
     7
100
AcDbLine
 10
209238.071
 20
438919.63
 30
0.0
 11
209268.862
 21
438941.587
 31
0.0
1001
ToXml
1000
boogpunt1=
1000
boogpunt2=
1000
boogpunt3=
1000
ngdw_id=0
  0
LINE
  5
1B63
330
1CE1
100
AcDbEntity
  8
G01
 62
     7
100
AcDbLine
 10
209647.135
 20
438821.311
 30
0.0
 11
209647.989
 21
438820.923
 31
0.0
1001
ToXml
1000
boogpunt1=
1000
boogpunt2=
1000
boogpunt3=
1000
ngdw_id=0
  0
LINE
  5
1B64
330
1CE1
100
AcDbEntity
  8
G01
 62
     7
100
AcDbLine
 10
209406.855
 20
438857.17
 30
0.0
 11
209417.526
 21
438864.962
 31
0.0
1001
ToXml
1000
boogpunt1=
1000
boogpunt2=
1000
boogpunt3=
1000
ngdw_id=0
  0
LINE
  5
1B65
330
1CE1
100
AcDbEntity
  8
G01
 62
     7
100
AcDbLine
 10
208972.407
 20
438952.442
 30
0.0
 11
208943.23
 21
438958.279
 31
0.0
1001
ToXml
1000
boogpunt1=
1000
boogpunt2=
1000
boogpunt3=
1000
ngdw_id=0
  0
LINE
  5
1B66
330
1CE1
100
AcDbEntity
  8
G01
 62
     7
100
AcDbLine
 10
208943.23
 20
438958.279
 30
0.0
 11
208935.946
 21
438921.608
 31
0.0
1001
ToXml
1000
boogpunt1=
1000
boogpunt2=
1000
boogpunt3=
1000
ngdw_id=0
  0
LINE
  5
1B67
330
1CE1
100
AcDbEntity
  8
G01
 62
     7
100
AcDbLine
 10
208943.23
 20
438958.279
 30
0.0
 11
208929.653
 21
438960.995
 31
0.0
1001
ToXml
1000
boogpunt1=
1000
boogpunt2=
1000
boogpunt3=
1000
ngdw_id=0
  0
LINE
  5
1B68
330
1CE1
100
AcDbEntity
  8
G01
 62
     7
100
AcDbLine
 10
209424.366
 20
438884.48
 30
0.0
 11
209445.261
 21
438898.153
 31
0.0
1001
ToXml
1000
boogpunt1=
1000
boogpunt2=
1000
boogpunt3=
1000
ngdw_id=0
  0
LINE
  5
1B69
330
1CE1
100
AcDbEntity
  8
G01
 62
     7
100
AcDbLine
 10
209445.261
 20
438898.153
 30
0.0
 11
209448.83
 21
438900.863
 31
0.0
1001
ToXml
1000
boogpunt1=
1000
boogpunt2=
1000
boogpunt3=
1000
ngdw_id=0
  0
LINE
  5
1B6A
330
1CE1
100
AcDbEntity
  8
G01
 62
     7
100
AcDbLine
 10
209448.83
 20
438900.863
 30
0.0
 11
209449.9
 21
438901.518
 31
0.0
1001
ToXml
1000
boogpunt1=
1000
boogpunt2=
1000
boogpunt3=
1000
ngdw_id=0
  0
LINE
  5
1B6B
330
1CE1
100
AcDbEntity
  8
G01
 62
     7
100
AcDbLine
 10
209490.484
 20
438799.564
 30
0.0
 11
209540.817
 21
438770.325
 31
0.0
1001
ToXml
1000
boogpunt1=
1000
boogpunt2=
1000
boogpunt3=
1000
ngdw_id=0
  0
LINE
  5
1B6C
330
1CE1
100
AcDbEntity
  8
G01
 62
     7
100
AcDbLine
 10
209101.963
 20
438483.272
 30
0.0
 11
209105.271
 21
438481.723
 31
0.0
1001
ToXml
1000
boogpunt1=
1000
boogpunt2=
1000
boogpunt3=
1000
ngdw_id=0
  0
LINE
  5
1B6D
330
1CE1
100
AcDbEntity
  8
G01
 62
     7
100
AcDbLine
 10
209105.271
 20
438481.723
 30
0.0
 11
209122.344
 21
438517.27
 31
0.0
1001
ToXml
1000
boogpunt1=
1000
boogpunt2=
1000
boogpunt3=
1000
ngdw_id=0
  0
LINE
  5
1B6E
330
1CE1
100
AcDbEntity
  8
G01
 62
     7
100
AcDbLine
 10
209543.33
 20
438959.709
 30
0.0
 11
209550.356
 21
439000.0
 31
0.0
1001
ToXml
1000
boogpunt1=
1000
boogpunt2=
1000
boogpunt3=
1000
ngdw_id=0
  0
LINE
  5
1B6F
330
1CE1
100
AcDbEntity
  8
G01
 62
     7
100
AcDbLine
 10
209036.141
 20
438588.235
 30
0.0
 11
209005.459
 21
438525.313
 31
0.0
1001
ToXml
1000
boogpunt1=
1000
boogpunt2=
1000
boogpunt3=
1000
ngdw_id=0
  0
LINE
  5
1B70
330
1CE1
100
AcDbEntity
  8
G01
 62
     7
100
AcDbLine
 10
209005.459
 20
438525.313
 30
0.0
 11
209078.169
 21
438493.638
 31
0.0
1001
ToXml
1000
boogpunt1=
1000
boogpunt2=
1000
boogpunt3=
1000
ngdw_id=0
  0
LINE
  5
1B71
330
1CE1
100
AcDbEntity
  8
G01
 62
     7
100
AcDbLine
 10
209036.141
 20
438588.235
 30
0.0
 11
209041.509
 21
438585.51
 31
0.0
1001
ToXml
1000
boogpunt1=
1000
boogpunt2=
1000
boogpunt3=
1000
ngdw_id=0
  0
LINE
  5
1B72
330
1CE1
100
AcDbEntity
  8
G01
 62
     7
100
AcDbLine
 10
209041.509
 20
438585.51
 30
0.0
 11
209127.516
 21
438528.039
 31
0.0
1001
ToXml
1000
boogpunt1=
1000
boogpunt2=
1000
boogpunt3=
1000
ngdw_id=0
  0
LINE
  5
1B73
330
1CE1
100
AcDbEntity
  8
G01
 62
     7
100
AcDbLine
 10
209588.643
 20
438734.361
 30
0.0
 11
209633.019
 21
438708.381
 31
0.0
1001
ToXml
1000
boogpunt1=
1000
boogpunt2=
1000
boogpunt3=
1000
ngdw_id=0
  0
LINE
  5
1B74
330
1CE1
100
AcDbEntity
  8
G01
 62
     7
100
AcDbLine
 10
209633.019
 20
438708.381
 30
0.0
 11
209638.183
 21
438705.325
 31
0.0
1001
ToXml
1000
boogpunt1=
1000
boogpunt2=
1000
boogpunt3=
1000
ngdw_id=0
  0
LINE
  5
1B75
330
1CE1
100
AcDbEntity
  8
G01
 62
     7
100
AcDbLine
 10
209598.983
 20
438735.665
 30
0.0
 11
209602.035
 21
438741.094
 31
0.0
1001
ToXml
1000
boogpunt1=
1000
boogpunt2=
1000
boogpunt3=
1000
ngdw_id=0
  0
LINE
  5
1B76
330
1CE1
100
AcDbEntity
  8
G01
 62
     7
100
AcDbLine
 10
209586.513
 20
438972.507
 30
0.0
 11
209592.363
 21
439000.0
 31
0.0
1001
ToXml
1000
boogpunt1=
1000
boogpunt2=
1000
boogpunt3=
1000
ngdw_id=0
  0
LINE
  5
1B77
330
1CE1
100
AcDbEntity
  8
G01
 62
     7
100
AcDbLine
 10
209602.035
 20
438741.094
 30
0.0
 11
209602.766
 21
438740.669
 31
0.0
1001
ToXml
1000
boogpunt1=
1000
boogpunt2=
1000
boogpunt3=
1000
ngdw_id=0
  0
LINE
  5
1B78
330
1CE1
100
AcDbEntity
  8
G01
 62
     7
100
AcDbLine
 10
209543.33
 20
438959.709
 30
0.0
 11
209556.005
 21
438965.288
 31
0.0
1001
ToXml
1000
boogpunt1=
1000
boogpunt2=
1000
boogpunt3=
1000
ngdw_id=0
  0
LINE
  5
1B79
330
1CE1
100
AcDbEntity
  8
G01
 62
     7
100
AcDbLine
 10
209556.005
 20
438965.288
 30
0.0
 11
209573.304
 21
438971.074
 31
0.0
1001
ToXml
1000
boogpunt1=
1000
boogpunt2=
1000
boogpunt3=
1000
ngdw_id=0
  0
LINE
  5
1B7A
330
1CE1
100
AcDbEntity
  8
G01
 62
     7
100
AcDbLine
 10
209573.304
 20
438971.074
 30
0.0
 11
209579.588
 21
438972.496
 31
0.0
1001
ToXml
1000
boogpunt1=
1000
boogpunt2=
1000
boogpunt3=
1000
ngdw_id=0
  0
LINE
  5
1B7B
330
1CE1
100
AcDbEntity
  8
G01
 62
     7
100
AcDbLine
 10
209579.588
 20
438972.496
 30
0.0
 11
209586.513
 21
438972.507
 31
0.0
1001
ToXml
1000
boogpunt1=
1000
boogpunt2=
1000
boogpunt3=
1000
ngdw_id=0
  0
LINE
  5
1B7C
330
1CE1
100
AcDbEntity
  8
G01
 62
     7
100
AcDbLine
 10
209449.9
 20
438901.518
 30
0.0
 11
209455.623
 21
438905.021
 31
0.0
1001
ToXml
1000
boogpunt1=
1000
boogpunt2=
1000
boogpunt3=
1000
ngdw_id=0
  0
LINE
  5
1B7D
330
1CE1
100
AcDbEntity
  8
G01
 62
     7
100
AcDbLine
 10
209455.623
 20
438905.021
 30
0.0
 11
209456.311
 21
438910.535
 31
0.0
1001
ToXml
1000
boogpunt1=
1000
boogpunt2=
1000
boogpunt3=
1000
ngdw_id=0
  0
LINE
  5
1B7E
330
1CE1
100
AcDbEntity
  8
G01
 62
     7
100
AcDbLine
 10
209455.82
 20
438952.573
 30
0.0
 11
209449.9
 21
438901.518
 31
0.0
1001
ToXml
1000
boogpunt1=
1000
boogpunt2=
1000
boogpunt3=
1000
ngdw_id=0
  0
LINE
  5
1B7F
330
1CE1
100
AcDbEntity
  8
G01
 62
     7
100
AcDbLine
 10
209598.983
 20
438735.665
 30
0.0
 11
209618.771
 21
438723.888
 31
0.0
1001
ToXml
1000
boogpunt1=
1000
boogpunt2=
1000
boogpunt3=
1000
ngdw_id=0
  0
LINE
  5
1B80
330
1CE1
100
AcDbEntity
  8
G01
 62
     7
100
AcDbLine
 10
209647.989
 20
438820.923
 30
0.0
 11
209648.09
 21
438820.877
 31
0.0
1001
ToXml
1000
boogpunt1=
1000
boogpunt2=
1000
boogpunt3=
1000
ngdw_id=0
  0
LINE
  5
1B81
330
1CE1
100
AcDbEntity
  8
G01
 62
     7
100
AcDbLine
 10
209008.025
 20
438826.659
 30
0.0
 11
209009.483
 21
438835.629
 31
0.0
1001
ToXml
1000
boogpunt1=
1000
boogpunt2=
1000
boogpunt3=
1000
ngdw_id=0
  0
LINE
  5
1B82
330
1CE1
100
AcDbEntity
  8
G01
 62
     7
100
AcDbLine
 10
209005.484
 20
438836.708
 30
0.0
 11
209009.483
 21
438835.629
 31
0.0
1001
ToXml
1000
boogpunt1=
1000
boogpunt2=
1000
boogpunt3=
1000
ngdw_id=0
  0
LINE
  5
1B83
330
1CE1
100
AcDbEntity
  8
G01
 62
     7
100
AcDbLine
 10
209000.22
 20
438807.998
 30
0.0
 11
209005.491
 21
438816.586
 31
0.0
1001
ToXml
1000
boogpunt1=
1000
boogpunt2=
1000
boogpunt3=
1000
ngdw_id=0
  0
LINE
  5
1B84
330
1CE1
100
AcDbEntity
  8
G01
 62
     7
100
AcDbLine
 10
209005.491
 20
438816.586
 30
0.0
 11
209007.796
 21
438825.247
 31
0.0
1001
ToXml
1000
boogpunt1=
1000
boogpunt2=
1000
boogpunt3=
1000
ngdw_id=0
  0
LINE
  5
1B85
330
1CE1
100
AcDbEntity
  8
G01
 62
     7
100
AcDbLine
 10
209007.796
 20
438825.247
 30
0.0
 11
209008.025
 21
438826.659
 31
0.0
1001
ToXml
1000
boogpunt1=
1000
boogpunt2=
1000
boogpunt3=
1000
ngdw_id=0
  0
LINE
  5
1B86
330
1CE1
100
AcDbEntity
  8
G01
 62
     7
100
AcDbLine
 10
209205.035
 20
438680.764
 30
0.0
 11
209208.402
 21
438688.507
 31
0.0
1001
ToXml
1000
boogpunt1=
1000
boogpunt2=
1000
boogpunt3=
1000
ngdw_id=0
  0
LINE
  5
1B87
330
1CE1
100
AcDbEntity
  8
G01
 62
     7
100
AcDbLine
 10
209208.402
 20
438688.507
 30
0.0
 11
209213.064
 21
438697.21
 31
0.0
1001
ToXml
1000
boogpunt1=
1000
boogpunt2=
1000
boogpunt3=
1000
ngdw_id=0
  0
LINE
  5
1B88
330
1CE1
100
AcDbEntity
  8
G01
 62
     7
100
AcDbLine
 10
209213.064
 20
438697.21
 30
0.0
 11
209219.373
 21
438707.68
 31
0.0
1001
ToXml
1000
boogpunt1=
1000
boogpunt2=
1000
boogpunt3=
1000
ngdw_id=0
  0
LINE
  5
1B89
330
1CE1
100
AcDbEntity
  8
G01
 62
     7
100
AcDbLine
 10
209219.373
 20
438707.68
 30
0.0
 11
209222.617
 21
438712.763
 31
0.0
1001
ToXml
1000
boogpunt1=
1000
boogpunt2=
1000
boogpunt3=
1000
ngdw_id=0
  0
LINE
  5
1B8A
330
1CE1
100
AcDbEntity
  8
G01
 62
     7
100
AcDbLine
 10
209222.617
 20
438712.763
 30
0.0
 11
209229.433
 21
438722.144
 31
0.0
1001
ToXml
1000
boogpunt1=
1000
boogpunt2=
1000
boogpunt3=
1000
ngdw_id=0
  0
LINE
  5
1B8B
330
1CE1
100
AcDbEntity
  8
G01
 62
     7
100
AcDbLine
 10
209229.433
 20
438722.144
 30
0.0
 11
209234.955
 21
438729.04
 31
0.0
1001
ToXml
1000
boogpunt1=
1000
boogpunt2=
1000
boogpunt3=
1000
ngdw_id=0
  0
LINE
  5
1B8C
330
1CE1
100
AcDbEntity
  8
G01
 62
     7
100
AcDbLine
 10
209234.955
 20
438729.04
 30
0.0
 11
209241.166
 21
438736.493
 31
0.0
1001
ToXml
1000
boogpunt1=
1000
boogpunt2=
1000
boogpunt3=
1000
ngdw_id=0
  0
LINE
  5
1B8D
330
1CE1
100
AcDbEntity
  8
G01
 62
     7
100
AcDbLine
 10
209241.166
 20
438736.493
 30
0.0
 11
209249.5
 21
438746.127
 31
0.0
1001
ToXml
1000
boogpunt1=
1000
boogpunt2=
1000
boogpunt3=
1000
ngdw_id=0
  0
LINE
  5
1B8E
330
1CE1
100
AcDbEntity
  8
G01
 62
     7
100
AcDbLine
 10
209249.5
 20
438746.127
 30
0.0
 11
209253.109
 21
438749.684
 31
0.0
1001
ToXml
1000
boogpunt1=
1000
boogpunt2=
1000
boogpunt3=
1000
ngdw_id=0
  0
LINE
  5
1B8F
330
1CE1
100
AcDbEntity
  8
G01
 62
     7
100
AcDbLine
 10
209253.109
 20
438749.684
 30
0.0
 11
209265.655
 21
438760.907
 31
0.0
1001
ToXml
1000
boogpunt1=
1000
boogpunt2=
1000
boogpunt3=
1000
ngdw_id=0
  0
LINE
  5
1B90
330
1CE1
100
AcDbEntity
  8
G01
 62
     7
100
AcDbLine
 10
209265.655
 20
438760.907
 30
0.0
 11
209272.111
 21
438766.73
 31
0.0
1001
ToXml
1000
boogpunt1=
1000
boogpunt2=
1000
boogpunt3=
1000
ngdw_id=0
  0
LINE
  5
1B91
330
1CE1
100
AcDbEntity
  8
G01
 62
     7
100
AcDbLine
 10
209272.111
 20
438766.73
 30
0.0
 11
209282.536
 21
438774.853
 31
0.0
1001
ToXml
1000
boogpunt1=
1000
boogpunt2=
1000
boogpunt3=
1000
ngdw_id=0
  0
LINE
  5
1B92
330
1CE1
100
AcDbEntity
  8
G01
 62
     7
100
AcDbLine
 10
209282.536
 20
438774.853
 30
0.0
 11
209303.274
 21
438789.157
 31
0.0
1001
ToXml
1000
boogpunt1=
1000
boogpunt2=
1000
boogpunt3=
1000
ngdw_id=0
  0
LINE
  5
1B93
330
1CE1
100
AcDbEntity
  8
G01
 62
     7
100
AcDbLine
 10
209303.274
 20
438789.157
 30
0.0
 11
209362.744
 21
438828.386
 31
0.0
1001
ToXml
1000
boogpunt1=
1000
boogpunt2=
1000
boogpunt3=
1000
ngdw_id=0
  0
LINE
  5
1B94
330
1CE1
100
AcDbEntity
  8
G01
 62
     7
100
AcDbLine
 10
209362.744
 20
438828.386
 30
0.0
 11
209400.877
 21
438853.061
 31
0.0
1001
ToXml
1000
boogpunt1=
1000
boogpunt2=
1000
boogpunt3=
1000
ngdw_id=0
  0
LINE
  5
1B95
330
1CE1
100
AcDbEntity
  8
G01
 62
     7
100
AcDbLine
 10
209400.877
 20
438853.061
 30
0.0
 11
209406.855
 21
438857.17
 31
0.0
1001
ToXml
1000
boogpunt1=
1000
boogpunt2=
1000
boogpunt3=
1000
ngdw_id=0
  0
LINE
  5
1B96
330
1CE1
100
AcDbEntity
  8
G01
 62
     7
100
AcDbLine
 10
209277.036
 20
438947.417
 30
0.0
 11
209291.886
 21
438958.007
 31
0.0
1001
ToXml
1000
boogpunt1=
1000
boogpunt2=
1000
boogpunt3=
1000
ngdw_id=0
  0
LINE
  5
1B97
330
1CE1
100
AcDbEntity
  8
G01
 62
     7
100
AcDbLine
 10
209291.886
 20
438958.007
 30
0.0
 11
209353.466
 21
438999.152
 31
0.0
1001
ToXml
1000
boogpunt1=
1000
boogpunt2=
1000
boogpunt3=
1000
ngdw_id=0
  0
LINE
  5
1B98
330
1CE1
100
AcDbEntity
  8
G01
 62
     7
100
AcDbLine
 10
209277.036
 20
438947.417
 30
0.0
 11
209372.138
 21
438862.927
 31
0.0
1001
ToXml
1000
boogpunt1=
1000
boogpunt2=
1000
boogpunt3=
1000
ngdw_id=0
  0
LINE
  5
1B99
330
1CE1
100
AcDbEntity
  8
G01
 62
     7
100
AcDbLine
 10
209372.138
 20
438862.927
 30
0.0
 11
209418.706
 21
438893.344
 31
0.0
1001
ToXml
1000
boogpunt1=
1000
boogpunt2=
1000
boogpunt3=
1000
ngdw_id=0
  0
LINE
  5
1B9A
330
1CE1
100
AcDbEntity
  8
G01
 62
     7
100
AcDbLine
 10
209418.706
 20
438893.344
 30
0.0
 11
209424.366
 21
438884.48
 31
0.0
1001
ToXml
1000
boogpunt1=
1000
boogpunt2=
1000
boogpunt3=
1000
ngdw_id=0
  0
LINE
  5
1B9B
330
1CE1
100
AcDbEntity
  8
G01
 62
     7
100
AcDbLine
 10
209268.862
 20
438941.587
 30
0.0
 11
209371.438
 21
438849.846
 31
0.0
1001
ToXml
1000
boogpunt1=
1000
boogpunt2=
1000
boogpunt3=
1000
ngdw_id=0
  0
LINE
  5
1B9C
330
1CE1
100
AcDbEntity
  8
G01
 62
     7
100
AcDbLine
 10
209461.57
 20
439000.0
 30
0.0
 11
209455.82
 21
438952.573
 31
0.0
1001
ToXml
1000
boogpunt1=
1000
boogpunt2=
1000
boogpunt3=
1000
ngdw_id=0
  0
LINE
  5
1B9D
330
1CE1
100
AcDbEntity
  8
G01
 62
     7
100
AcDbLine
 10
209353.466
 20
438999.152
 30
0.0
 11
209354.735
 21
439000.0
 31
0.0
1001
ToXml
1000
boogpunt1=
1000
boogpunt2=
1000
boogpunt3=
1000
ngdw_id=0
  0
LINE
  5
1B9E
330
1CE1
100
AcDbEntity
  8
G01
 62
     7
100
AcDbLine
 10
209353.466
 20
438999.152
 30
0.0
 11
209455.82
 21
438952.573
 31
0.0
1001
ToXml
1000
boogpunt1=
1000
boogpunt2=
1000
boogpunt3=
1000
ngdw_id=0
  0
LINE
  5
1B9F
330
1CE1
100
AcDbEntity
  8
G01
 62
     7
100
AcDbLine
 10
209540.817
 20
438770.325
 30
0.0
 11
209560.143
 21
438758.809
 31
0.0
1001
ToXml
1000
boogpunt1=
1000
boogpunt2=
1000
boogpunt3=
1000
ngdw_id=0
  0
LINE
  5
1BA0
330
1CE1
100
AcDbEntity
  8
G01
 62
     7
100
AcDbLine
 10
209560.143
 20
438758.809
 30
0.0
 11
209561.212
 21
438758.172
 31
0.0
1001
ToXml
1000
boogpunt1=
1000
boogpunt2=
1000
boogpunt3=
1000
ngdw_id=0
  0
LINE
  5
1BA1
330
1CE1
100
AcDbEntity
  8
G01
 62
     7
100
AcDbLine
 10
209560.143
 20
438758.809
 30
0.0
 11
209564.728
 21
438767.597
 31
0.0
1001
ToXml
1000
boogpunt1=
1000
boogpunt2=
1000
boogpunt3=
1000
ngdw_id=0
  0
LINE
  5
1BA2
330
1CE1
100
AcDbEntity
  8
G01
 62
     7
100
AcDbLine
 10
209561.212
 20
438758.172
 30
0.0
 11
209565.816
 21
438766.973
 31
0.0
1001
ToXml
1000
boogpunt1=
1000
boogpunt2=
1000
boogpunt3=
1000
ngdw_id=0
  0
LINE
  5
1BA3
330
1CE1
100
AcDbEntity
  8
G01
 62
     7
100
AcDbLine
 10
209561.212
 20
438758.172
 30
0.0
 11
209594.764
 21
438738.179
 31
0.0
1001
ToXml
1000
boogpunt1=
1000
boogpunt2=
1000
boogpunt3=
1000
ngdw_id=0
  0
LINE
  5
1BA4
330
1CE1
100
AcDbEntity
  8
G01
 62
     7
100
AcDbLine
 10
209564.728
 20
438767.597
 30
0.0
 11
209562.261
 21
438769.012
 31
0.0
1001
ToXml
1000
boogpunt1=
1000
boogpunt2=
1000
boogpunt3=
1000
ngdw_id=0
  0
LINE
  5
1BA5
330
1CE1
100
AcDbEntity
  8
G01
 62
     7
100
AcDbLine
 10
209562.261
 20
438769.012
 30
0.0
 11
209564.17
 21
438772.62
 31
0.0
1001
ToXml
1000
boogpunt1=
1000
boogpunt2=
1000
boogpunt3=
1000
ngdw_id=0
  0
LINE
  5
1BA6
330
1CE1
100
AcDbEntity
  8
G01
 62
     7
100
AcDbLine
 10
209564.17
 20
438772.62
 30
0.0
 11
209567.772
 21
438770.6
 31
0.0
1001
ToXml
1000
boogpunt1=
1000
boogpunt2=
1000
boogpunt3=
1000
ngdw_id=0
  0
LINE
  5
1BA7
330
1CE1
100
AcDbEntity
  8
G01
 62
     7
100
AcDbLine
 10
209567.772
 20
438770.6
 30
0.0
 11
209565.816
 21
438766.973
 31
0.0
1001
ToXml
1000
boogpunt1=
1000
boogpunt2=
1000
boogpunt3=
1000
ngdw_id=0
  0
LINE
  5
1BA8
330
1CE1
100
AcDbEntity
  8
G01
 62
     7
100
AcDbLine
 10
209564.728
 20
438767.597
 30
0.0
 11
209565.816
 21
438766.973
 31
0.0
1001
ToXml
1000
boogpunt1=
1000
boogpunt2=
1000
boogpunt3=
1000
ngdw_id=0
  0
LINE
  5
1BA9
330
1CE1
100
AcDbEntity
  8
G01
 62
     7
100
AcDbLine
 10
209594.764
 20
438738.179
 30
0.0
 11
209598.911
 21
438735.708
 31
0.0
1001
ToXml
1000
boogpunt1=
1000
boogpunt2=
1000
boogpunt3=
1000
ngdw_id=0
  0
LINE
  5
1BAA
330
1CE1
100
AcDbEntity
  8
G01
 62
     7
100
AcDbLine
 10
209598.911
 20
438735.708
 30
0.0
 11
209598.983
 21
438735.665
 31
0.0
1001
ToXml
1000
boogpunt1=
1000
boogpunt2=
1000
boogpunt3=
1000
ngdw_id=0
  0
LINE
  5
1BAB
330
1CE1
100
AcDbEntity
  8
G01
 62
     7
100
AcDbLine
 10
208995.794
 20
438600.905
 30
0.0
 11
209014.394
 21
438597.091
 31
0.0
1001
ToXml
1000
boogpunt1=
1000
boogpunt2=
1000
boogpunt3=
1000
ngdw_id=0
  0
LINE
  5
1BAC
330
1CE1
100
AcDbEntity
  8
G01
 62
     7
100
AcDbLine
 10
209014.394
 20
438597.091
 30
0.0
 11
209030.15
 21
438591.276
 31
0.0
1001
ToXml
1000
boogpunt1=
1000
boogpunt2=
1000
boogpunt3=
1000
ngdw_id=0
  0
LINE
  5
1BAD
330
1CE1
100
AcDbEntity
  8
G01
 62
     7
100
AcDbLine
 10
209030.15
 20
438591.276
 30
0.0
 11
209036.141
 21
438588.235
 31
0.0
1001
ToXml
1000
boogpunt1=
1000
boogpunt2=
1000
boogpunt3=
1000
ngdw_id=0
  0
LINE
  5
1BAE
330
1CE1
100
AcDbEntity
  8
G01
 62
     7
100
AcDbLine
 10
209268.862
 20
438941.587
 30
0.0
 11
209277.036
 21
438947.417
 31
0.0
1001
ToXml
1000
boogpunt1=
1000
boogpunt2=
1000
boogpunt3=
1000
ngdw_id=0
  0
LINE
  5
1BAF
330
1CE1
100
AcDbEntity
  8
G01
 62
     7
100
AcDbLine
 10
209101.758
 20
438452.161
 30
0.0
 11
209114.472
 21
438476.993
 31
0.0
1001
ToXml
1000
boogpunt1=
1000
boogpunt2=
1000
boogpunt3=
1000
ngdw_id=0
  0
LINE
  5
1BB0
330
1CE1
100
AcDbEntity
  8
G01
 62
     7
100
AcDbLine
 10
209114.472
 20
438476.993
 30
0.0
 11
209119.55
 21
438488.075
 31
0.0
1001
ToXml
1000
boogpunt1=
1000
boogpunt2=
1000
boogpunt3=
1000
ngdw_id=0
  0
LINE
  5
1BB1
330
1CE1
100
AcDbEntity
  8
G01
 62
     7
100
AcDbLine
 10
209119.55
 20
438488.075
 30
0.0
 11
209136.087
 21
438521.337
 31
0.0
1001
ToXml
1000
boogpunt1=
1000
boogpunt2=
1000
boogpunt3=
1000
ngdw_id=0
  0
LINE
  5
1BB2
330
1CE1
100
AcDbEntity
  8
G01
 62
     7
100
AcDbLine
 10
209136.087
 20
438521.337
 30
0.0
 11
209132.961
 21
438524.503
 31
0.0
1001
ToXml
1000
boogpunt1=
1000
boogpunt2=
1000
boogpunt3=
1000
ngdw_id=0
  0
LINE
  5
1BB3
330
1CE1
100
AcDbEntity
  8
G01
 62
     7
100
AcDbLine
 10
209132.961
 20
438524.503
 30
0.0
 11
209135.526
 21
438530.315
 31
0.0
1001
ToXml
1000
boogpunt1=
1000
boogpunt2=
1000
boogpunt3=
1000
ngdw_id=0
  0
LINE
  5
1BB4
330
1CE1
100
AcDbEntity
  8
G01
 62
     7
100
AcDbLine
 10
209135.526
 20
438530.315
 30
0.0
 11
209155.95
 21
438517.281
 31
0.0
1001
ToXml
1000
boogpunt1=
1000
boogpunt2=
1000
boogpunt3=
1000
ngdw_id=0
  0
LINE
  5
1BB5
330
1CE1
100
AcDbEntity
  8
G01
 62
     7
100
AcDbLine
 10
209135.526
 20
438530.315
 30
0.0
 11
209159.361
 21
438583.75
 31
0.0
1001
ToXml
1000
boogpunt1=
1000
boogpunt2=
1000
boogpunt3=
1000
ngdw_id=0
  0
LINE
  5
1BB6
330
1CE1
100
AcDbEntity
  8
G01
 62
     7
100
AcDbLine
 10
209159.361
 20
438583.75
 30
0.0
 11
209162.377
 21
438582.473
 31
0.0
1001
ToXml
1000
boogpunt1=
1000
boogpunt2=
1000
boogpunt3=
1000
ngdw_id=0
  0
LINE
  5
1BB7
330
1CE1
100
AcDbEntity
  8
G01
 62
     7
100
AcDbLine
 10
209136.087
 20
438521.337
 30
0.0
 11
209153.48
 21
438511.088
 31
0.0
1001
ToXml
1000
boogpunt1=
1000
boogpunt2=
1000
boogpunt3=
1000
ngdw_id=0
  0
LINE
  5
1BB8
330
1CE1
100
AcDbEntity
  8
G01
 62
     7
100
AcDbLine
 10
209153.48
 20
438511.088
 30
0.0
 11
209172.095
 21
438498.252
 31
0.0
1001
ToXml
1000
boogpunt1=
1000
boogpunt2=
1000
boogpunt3=
1000
ngdw_id=0
  0
LINE
  5
1BB9
330
1CE1
100
AcDbEntity
  8
G01
 62
     7
100
AcDbLine
 10
209172.095
 20
438498.252
 30
0.0
 11
209189.538
 21
438487.037
 31
0.0
1001
ToXml
1000
boogpunt1=
1000
boogpunt2=
1000
boogpunt3=
1000
ngdw_id=0
  0
LINE
  5
1BBA
330
1CE1
100
AcDbEntity
  8
G01
 62
     7
100
AcDbLine
 10
209189.538
 20
438487.037
 30
0.0
 11
209218.585
 21
438467.268
 31
0.0
1001
ToXml
1000
boogpunt1=
1000
boogpunt2=
1000
boogpunt3=
1000
ngdw_id=0
  0
LINE
  5
1BBB
330
1CE1
100
AcDbEntity
  8
G01
 62
     7
100
AcDbLine
 10
209155.95
 20
438517.281
 30
0.0
 11
209223.144
 21
438472.797
 31
0.0
1001
ToXml
1000
boogpunt1=
1000
boogpunt2=
1000
boogpunt3=
1000
ngdw_id=0
  0
LINE
  5
1BBC
330
1CE1
100
AcDbEntity
  8
G01
 62
     7
100
AcDbLine
 10
209223.144
 20
438472.797
 30
0.0
 11
209267.165
 21
438563.262
 31
0.0
1001
ToXml
1000
boogpunt1=
1000
boogpunt2=
1000
boogpunt3=
1000
ngdw_id=0
  0
LINE
  5
1BBD
330
1CE1
100
AcDbEntity
  8
G01
 62
     7
100
AcDbLine
 10
209155.95
 20
438517.281
 30
0.0
 11
209182.438
 21
438563.419
 31
0.0
1001
ToXml
1000
boogpunt1=
1000
boogpunt2=
1000
boogpunt3=
1000
ngdw_id=0
  0
LINE
  5
1BBE
330
1CE1
100
AcDbEntity
  8
G01
 62
     7
100
AcDbLine
 10
209182.438
 20
438563.419
 30
0.0
 11
209161.169
 21
438578.495
 31
0.0
1001
ToXml
1000
boogpunt1=
1000
boogpunt2=
1000
boogpunt3=
1000
ngdw_id=0
  0
LINE
  5
1BBF
330
1CE1
100
AcDbEntity
  8
G01
 62
     7
100
AcDbLine
 10
209161.169
 20
438578.495
 30
0.0
 11
209162.377
 21
438582.473
 31
0.0
1001
ToXml
1000
boogpunt1=
1000
boogpunt2=
1000
boogpunt3=
1000
ngdw_id=0
  0
LINE
  5
1BC0
330
1CE1
100
AcDbEntity
  8
G01
 62
     7
100
AcDbLine
 10
209162.377
 20
438582.473
 30
0.0
 11
209180.146
 21
438623.673
 31
0.0
1001
ToXml
1000
boogpunt1=
1000
boogpunt2=
1000
boogpunt3=
1000
ngdw_id=0
  0
LINE
  5
1BC1
330
1CE1
100
AcDbEntity
  8
G01
 62
     7
100
AcDbLine
 10
209180.146
 20
438623.673
 30
0.0
 11
209245.496
 21
438578.542
 31
0.0
1001
ToXml
1000
boogpunt1=
1000
boogpunt2=
1000
boogpunt3=
1000
ngdw_id=0
  0
LINE
  5
1BC2
330
1CE1
100
AcDbEntity
  8
G01
 62
     7
100
AcDbLine
 10
209245.496
 20
438578.542
 30
0.0
 11
209267.165
 21
438563.262
 31
0.0
1001
ToXml
1000
boogpunt1=
1000
boogpunt2=
1000
boogpunt3=
1000
ngdw_id=0
  0
LINE
  5
1BC3
330
1CE1
100
AcDbEntity
  8
G01
 62
     7
100
AcDbLine
 10
209180.146
 20
438623.673
 30
0.0
 11
209185.19
 21
438635.13
 31
0.0
1001
ToXml
1000
boogpunt1=
1000
boogpunt2=
1000
boogpunt3=
1000
ngdw_id=0
  0
LINE
  5
1BC4
330
1CE1
100
AcDbEntity
  8
G01
 62
     7
100
AcDbLine
 10
209185.19
 20
438635.13
 30
0.0
 11
209205.035
 21
438680.764
 31
0.0
1001
ToXml
1000
boogpunt1=
1000
boogpunt2=
1000
boogpunt3=
1000
ngdw_id=0
  0
LINE
  5
1BC5
330
1CE1
100
AcDbEntity
  8
G01
 62
     7
100
AcDbLine
 10
209205.035
 20
438680.764
 30
0.0
 11
209301.741
 21
438635.01
 31
0.0
1001
ToXml
1000
boogpunt1=
1000
boogpunt2=
1000
boogpunt3=
1000
ngdw_id=0
  0
LINE
  5
1BC6
330
1CE1
100
AcDbEntity
  8
G01
 62
     7
100
AcDbLine
 10
209218.585
 20
438467.268
 30
0.0
 11
209221.085
 21
438465.566
 31
0.0
1001
ToXml
1000
boogpunt1=
1000
boogpunt2=
1000
boogpunt3=
1000
ngdw_id=0
  0
LINE
  5
1BC7
330
1CE1
100
AcDbEntity
  8
G01
 62
     7
100
AcDbLine
 10
209221.085
 20
438465.566
 30
0.0
 11
209223.114
 21
438465.111
 31
0.0
1001
ToXml
1000
boogpunt1=
1000
boogpunt2=
1000
boogpunt3=
1000
ngdw_id=0
  0
LINE
  5
1BC8
330
1CE1
100
AcDbEntity
  8
G01
 62
     7
100
AcDbLine
 10
209223.114
 20
438465.111
 30
0.0
 11
209224.911
 21
438465.211
 31
0.0
1001
ToXml
1000
boogpunt1=
1000
boogpunt2=
1000
boogpunt3=
1000
ngdw_id=0
  0
LINE
  5
1BC9
330
1CE1
100
AcDbEntity
  8
G01
 62
     7
100
AcDbLine
 10
209224.911
 20
438465.211
 30
0.0
 11
209226.787
 21
438465.642
 31
0.0
1001
ToXml
1000
boogpunt1=
1000
boogpunt2=
1000
boogpunt3=
1000
ngdw_id=0
  0
LINE
  5
1BCA
330
1CE1
100
AcDbEntity
  8
G01
 62
     7
100
AcDbLine
 10
209226.787
 20
438465.642
 30
0.0
 11
209228.226
 21
438466.358
 31
0.0
1001
ToXml
1000
boogpunt1=
1000
boogpunt2=
1000
boogpunt3=
1000
ngdw_id=0
  0
LINE
  5
1BCB
330
1CE1
100
AcDbEntity
  8
G01
 62
     7
100
AcDbLine
 10
209228.226
 20
438466.358
 30
0.0
 11
209229.881
 21
438468.317
 31
0.0
1001
ToXml
1000
boogpunt1=
1000
boogpunt2=
1000
boogpunt3=
1000
ngdw_id=0
  0
LINE
  5
1BCC
330
1CE1
100
AcDbEntity
  8
G01
 62
     7
100
AcDbLine
 10
209229.881
 20
438468.317
 30
0.0
 11
209235.796
 21
438480.398
 31
0.0
1001
ToXml
1000
boogpunt1=
1000
boogpunt2=
1000
boogpunt3=
1000
ngdw_id=0
  0
LINE
  5
1BCD
330
1CE1
100
AcDbEntity
  8
G01
 62
     7
100
AcDbLine
 10
209235.796
 20
438480.398
 30
0.0
 11
209248.835
 21
438507.96
 31
0.0
1001
ToXml
1000
boogpunt1=
1000
boogpunt2=
1000
boogpunt3=
1000
ngdw_id=0
  0
LINE
  5
1BCE
330
1CE1
100
AcDbEntity
  8
G01
 62
     7
100
AcDbLine
 10
209248.835
 20
438507.96
 30
0.0
 11
209298.554
 21
438611.597
 31
0.0
1001
ToXml
1000
boogpunt1=
1000
boogpunt2=
1000
boogpunt3=
1000
ngdw_id=0
  0
LINE
  5
1BCF
330
1CE1
100
AcDbEntity
  8
G01
 62
     7
100
AcDbLine
 10
209298.554
 20
438611.597
 30
0.0
 11
209333.568
 21
438684.7
 31
0.0
1001
ToXml
1000
boogpunt1=
1000
boogpunt2=
1000
boogpunt3=
1000
ngdw_id=0
  0
LINE
  5
1BD0
330
1CE1
100
AcDbEntity
  8
G01
 62
     7
100
AcDbLine
 10
209333.568
 20
438684.7
 30
0.0
 11
209347.93
 21
438714.321
 31
0.0
1001
ToXml
1000
boogpunt1=
1000
boogpunt2=
1000
boogpunt3=
1000
ngdw_id=0
  0
LINE
  5
1BD1
330
1CE1
100
AcDbEntity
  8
G01
 62
     7
100
AcDbLine
 10
209347.93
 20
438714.321
 30
0.0
 11
209350.834
 21
438721.046
 31
0.0
1001
ToXml
1000
boogpunt1=
1000
boogpunt2=
1000
boogpunt3=
1000
ngdw_id=0
  0
LINE
  5
1BD2
330
1CE1
100
AcDbEntity
  8
G01
 62
     7
100
AcDbLine
 10
209350.834
 20
438721.046
 30
0.0
 11
209352.117
 21
438723.617
 31
0.0
1001
ToXml
1000
boogpunt1=
1000
boogpunt2=
1000
boogpunt3=
1000
ngdw_id=0
  0
LINE
  5
1BD3
330
1CE1
100
AcDbEntity
  8
G01
 62
     7
100
AcDbLine
 10
209352.117
 20
438723.617
 30
0.0
 11
209353.647
 21
438725.656
 31
0.0
1001
ToXml
1000
boogpunt1=
1000
boogpunt2=
1000
boogpunt3=
1000
ngdw_id=0
  0
LINE
  5
1BD4
330
1CE1
100
AcDbEntity
  8
G01
 62
     7
100
AcDbLine
 10
209353.647
 20
438725.656
 30
0.0
 11
209354.647
 21
438726.906
 31
0.0
1001
ToXml
1000
boogpunt1=
1000
boogpunt2=
1000
boogpunt3=
1000
ngdw_id=0
  0
LINE
  5
1BD5
330
1CE1
100
AcDbEntity
  8
G01
 62
     7
100
AcDbLine
 10
209354.647
 20
438726.906
 30
0.0
 11
209355.507
 21
438727.72
 31
0.0
1001
ToXml
1000
boogpunt1=
1000
boogpunt2=
1000
boogpunt3=
1000
ngdw_id=0
  0
LINE
  5
1BD6
330
1CE1
100
AcDbEntity
  8
G01
 62
     7
100
AcDbLine
 10
209355.507
 20
438727.72
 30
0.0
 11
209356.06
 21
438728.138
 31
0.0
1001
ToXml
1000
boogpunt1=
1000
boogpunt2=
1000
boogpunt3=
1000
ngdw_id=0
  0
LINE
  5
1BD7
330
1CE1
100
AcDbEntity
  8
G01
 62
     7
100
AcDbLine
 10
209356.06
 20
438728.138
 30
0.0
 11
209356.574
 21
438728.474
 31
0.0
1001
ToXml
1000
boogpunt1=
1000
boogpunt2=
1000
boogpunt3=
1000
ngdw_id=0
  0
LINE
  5
1BD8
330
1CE1
100
AcDbEntity
  8
G01
 62
     7
100
AcDbLine
 10
209356.574
 20
438728.474
 30
0.0
 11
209357.252
 21
438728.811
 31
0.0
1001
ToXml
1000
boogpunt1=
1000
boogpunt2=
1000
boogpunt3=
1000
ngdw_id=0
  0
LINE
  5
1BD9
330
1CE1
100
AcDbEntity
  8
G01
 62
     7
100
AcDbLine
 10
209357.252
 20
438728.811
 30
0.0
 11
209357.931
 21
438729.086
 31
0.0
1001
ToXml
1000
boogpunt1=
1000
boogpunt2=
1000
boogpunt3=
1000
ngdw_id=0
  0
LINE
  5
1BDA
330
1CE1
100
AcDbEntity
  8
G01
 62
     7
100
AcDbLine
 10
209357.931
 20
438729.086
 30
0.0
 11
209358.55
 21
438729.257
 31
0.0
1001
ToXml
1000
boogpunt1=
1000
boogpunt2=
1000
boogpunt3=
1000
ngdw_id=0
  0
LINE
  5
1BDB
330
1CE1
100
AcDbEntity
  8
G01
 62
     7
100
AcDbLine
 10
209358.55
 20
438729.257
 30
0.0
 11
209359.685
 21
438729.392
 31
0.0
1001
ToXml
1000
boogpunt1=
1000
boogpunt2=
1000
boogpunt3=
1000
ngdw_id=0
  0
LINE
  5
1BDC
330
1CE1
100
AcDbEntity
  8
G01
 62
     7
100
AcDbLine
 10
209359.685
 20
438729.392
 30
0.0
 11
209360.407
 21
438729.42
 31
0.0
1001
ToXml
1000
boogpunt1=
1000
boogpunt2=
1000
boogpunt3=
1000
ngdw_id=0
  0
LINE
  5
1BDD
330
1CE1
100
AcDbEntity
  8
G01
 62
     7
100
AcDbLine
 10
209360.407
 20
438729.42
 30
0.0
 11
209361.752
 21
438729.288
 31
0.0
1001
ToXml
1000
boogpunt1=
1000
boogpunt2=
1000
boogpunt3=
1000
ngdw_id=0
  0
LINE
  5
1BDE
330
1CE1
100
AcDbEntity
  8
G01
 62
     7
100
AcDbLine
 10
209361.752
 20
438729.288
 30
0.0
 11
209363.573
 21
438728.893
 31
0.0
1001
ToXml
1000
boogpunt1=
1000
boogpunt2=
1000
boogpunt3=
1000
ngdw_id=0
  0
LINE
  5
1BDF
330
1CE1
100
AcDbEntity
  8
G01
 62
     7
100
AcDbLine
 10
209363.573
 20
438728.893
 30
0.0
 11
209364.901
 21
438728.306
 31
0.0
1001
ToXml
1000
boogpunt1=
1000
boogpunt2=
1000
boogpunt3=
1000
ngdw_id=0
  0
LINE
  5
1BE0
330
1CE1
100
AcDbEntity
  8
G01
 62
     7
100
AcDbLine
 10
209364.901
 20
438728.306
 30
0.0
 11
209368.017
 21
438726.56
 31
0.0
1001
ToXml
1000
boogpunt1=
1000
boogpunt2=
1000
boogpunt3=
1000
ngdw_id=0
  0
LINE
  5
1BE1
330
1CE1
100
AcDbEntity
  8
G01
 62
     7
100
AcDbLine
 10
209368.017
 20
438726.56
 30
0.0
 11
209370.556
 21
438724.704
 31
0.0
1001
ToXml
1000
boogpunt1=
1000
boogpunt2=
1000
boogpunt3=
1000
ngdw_id=0
  0
LINE
  5
1BE2
330
1CE1
100
AcDbEntity
  8
G01
 62
     7
100
AcDbLine
 10
209370.556
 20
438724.704
 30
0.0
 11
209394.054
 21
438708.879
 31
0.0
1001
ToXml
1000
boogpunt1=
1000
boogpunt2=
1000
boogpunt3=
1000
ngdw_id=0
  0
LINE
  5
1BE3
330
1CE1
100
AcDbEntity
  8
G01
 62
     7
100
AcDbLine
 10
209394.054
 20
438708.879
 30
0.0
 11
209517.398
 21
438626.673
 31
0.0
1001
ToXml
1000
boogpunt1=
1000
boogpunt2=
1000
boogpunt3=
1000
ngdw_id=0
  0
LINE
  5
1BE4
330
1CE1
100
AcDbEntity
  8
G01
 62
     7
100
AcDbLine
 10
209267.165
 20
438563.262
 30
0.0
 11
209284.338
 21
438598.939
 31
0.0
1001
ToXml
1000
boogpunt1=
1000
boogpunt2=
1000
boogpunt3=
1000
ngdw_id=0
  0
LINE
  5
1BE5
330
1CE1
100
AcDbEntity
  8
G01
 62
     7
100
AcDbLine
 10
209284.338
 20
438598.939
 30
0.0
 11
209301.741
 21
438635.01
 31
0.0
1001
ToXml
1000
boogpunt1=
1000
boogpunt2=
1000
boogpunt3=
1000
ngdw_id=0
  0
LINE
  5
1BE6
330
1CE1
100
AcDbEntity
  8
G01
 62
     7
100
AcDbLine
 10
209301.741
 20
438635.01
 30
0.0
 11
209343.381
 21
438721.157
 31
0.0
1001
ToXml
1000
boogpunt1=
1000
boogpunt2=
1000
boogpunt3=
1000
ngdw_id=0
  0
LINE
  5
1BE7
330
1CE1
100
AcDbEntity
  8
G01
 62
     7
100
AcDbLine
 10
209343.381
 20
438721.157
 30
0.0
 11
209347.013
 21
438728.03
 31
0.0
1001
ToXml
1000
boogpunt1=
1000
boogpunt2=
1000
boogpunt3=
1000
ngdw_id=0
  0
LINE
  5
1BE8
330
1CE1
100
AcDbEntity
  8
G01
 62
     7
100
AcDbLine
 10
209347.013
 20
438728.03
 30
0.0
 11
209350.275
 21
438732.545
 31
0.0
1001
ToXml
1000
boogpunt1=
1000
boogpunt2=
1000
boogpunt3=
1000
ngdw_id=0
  0
LINE
  5
1BE9
330
1CE1
100
AcDbEntity
  8
G01
 62
     7
100
AcDbLine
 10
209350.275
 20
438732.545
 30
0.0
 11
209352.162
 21
438733.927
 31
0.0
1001
ToXml
1000
boogpunt1=
1000
boogpunt2=
1000
boogpunt3=
1000
ngdw_id=0
  0
LINE
  5
1BEA
330
1CE1
100
AcDbEntity
  8
G01
 62
     7
100
AcDbLine
 10
209352.162
 20
438733.927
 30
0.0
 11
209354.26
 21
438734.897
 31
0.0
1001
ToXml
1000
boogpunt1=
1000
boogpunt2=
1000
boogpunt3=
1000
ngdw_id=0
  0
LINE
  5
1BEB
330
1CE1
100
AcDbEntity
  8
G01
 62
     7
100
AcDbLine
 10
209354.26
 20
438734.897
 30
0.0
 11
209356.793
 21
438735.81
 31
0.0
1001
ToXml
1000
boogpunt1=
1000
boogpunt2=
1000
boogpunt3=
1000
ngdw_id=0
  0
LINE
  5
1BEC
330
1CE1
100
AcDbEntity
  8
G01
 62
     7
100
AcDbLine
 10
209356.793
 20
438735.81
 30
0.0
 11
209358.751
 21
438736.284
 31
0.0
1001
ToXml
1000
boogpunt1=
1000
boogpunt2=
1000
boogpunt3=
1000
ngdw_id=0
  0
LINE
  5
1BED
330
1CE1
100
AcDbEntity
  8
G01
 62
     7
100
AcDbLine
 10
209358.751
 20
438736.284
 30
0.0
 11
209361.724
 21
438736.457
 31
0.0
1001
ToXml
1000
boogpunt1=
1000
boogpunt2=
1000
boogpunt3=
1000
ngdw_id=0
  0
LINE
  5
1BEE
330
1CE1
100
AcDbEntity
  8
G01
 62
     7
100
AcDbLine
 10
209361.724
 20
438736.457
 30
0.0
 11
209363.254
 21
438736.327
 31
0.0
1001
ToXml
1000
boogpunt1=
1000
boogpunt2=
1000
boogpunt3=
1000
ngdw_id=0
  0
LINE
  5
1BEF
330
1CE1
100
AcDbEntity
  8
G01
 62
     7
100
AcDbLine
 10
209363.254
 20
438736.327
 30
0.0
 11
209365.494
 21
438735.502
 31
0.0
1001
ToXml
1000
boogpunt1=
1000
boogpunt2=
1000
boogpunt3=
1000
ngdw_id=0
  0
LINE
  5
1BF0
330
1CE1
100
AcDbEntity
  8
G01
 62
     7
100
AcDbLine
 10
209365.494
 20
438735.502
 30
0.0
 11
209368.813
 21
438734.046
 31
0.0
1001
ToXml
1000
boogpunt1=
1000
boogpunt2=
1000
boogpunt3=
1000
ngdw_id=0
  0
LINE
  5
1BF1
330
1CE1
100
AcDbEntity
  8
G01
 62
     7
100
AcDbLine
 10
209368.813
 20
438734.046
 30
0.0
 11
209372.242
 21
438732.034
 31
0.0
1001
ToXml
1000
boogpunt1=
1000
boogpunt2=
1000
boogpunt3=
1000
ngdw_id=0
  0
LINE
  5
1BF2
330
1CE1
100
AcDbEntity
  8
G01
 62
     7
100
AcDbLine
 10
209372.242
 20
438732.034
 30
0.0
 11
209435.812
 21
438689.346
 31
0.0
1001
ToXml
1000
boogpunt1=
1000
boogpunt2=
1000
boogpunt3=
1000
ngdw_id=0
  0
LINE
  5
1BF3
330
1CE1
100
AcDbEntity
  8
G01
 62
     7
100
AcDbLine
 10
209435.812
 20
438689.346
 30
0.0
 11
209494.717
 21
438650.496
 31
0.0
1001
ToXml
1000
boogpunt1=
1000
boogpunt2=
1000
boogpunt3=
1000
ngdw_id=0
  0
LINE
  5
1BF4
330
1CE1
100
AcDbEntity
  8
G01
 62
     7
100
AcDbLine
 10
209494.717
 20
438650.496
 30
0.0
 11
209521.454
 21
438632.93
 31
0.0
1001
ToXml
1000
boogpunt1=
1000
boogpunt2=
1000
boogpunt3=
1000
ngdw_id=0
  0
LINE
  5
1BF5
330
1CE1
100
AcDbEntity
  8
G01
 62
     7
100
AcDbLine
 10
209417.526
 20
438864.962
 30
0.0
 11
209419.937
 21
438859.687
 31
0.0
1001
ToXml
1000
boogpunt1=
1000
boogpunt2=
1000
boogpunt3=
1000
ngdw_id=0
  0
LINE
  5
1BF6
330
1CE1
100
AcDbEntity
  8
G01
 62
     7
100
AcDbLine
 10
209419.937
 20
438859.687
 30
0.0
 11
209421.566
 21
438856.684
 31
0.0
1001
ToXml
1000
boogpunt1=
1000
boogpunt2=
1000
boogpunt3=
1000
ngdw_id=0
  0
LINE
  5
1BF7
330
1CE1
100
AcDbEntity
  8
G01
 62
     7
100
AcDbLine
 10
209421.566
 20
438856.684
 30
0.0
 11
209429.26
 21
438844.568
 31
0.0
1001
ToXml
1000
boogpunt1=
1000
boogpunt2=
1000
boogpunt3=
1000
ngdw_id=0
  0
LINE
  5
1BF8
330
1CE1
100
AcDbEntity
  8
G01
 62
     7
100
AcDbLine
 10
209429.26
 20
438844.568
 30
0.0
 11
209430.566
 21
438842.73
 31
0.0
1001
ToXml
1000
boogpunt1=
1000
boogpunt2=
1000
boogpunt3=
1000
ngdw_id=0
  0
LINE
  5
1BF9
330
1CE1
100
AcDbEntity
  8
G01
 62
     7
100
AcDbLine
 10
209430.566
 20
438842.73
 30
0.0
 11
209431.669
 21
438841.511
 31
0.0
1001
ToXml
1000
boogpunt1=
1000
boogpunt2=
1000
boogpunt3=
1000
ngdw_id=0
  0
LINE
  5
1BFA
330
1CE1
100
AcDbEntity
  8
G01
 62
     7
100
AcDbLine
 10
209431.669
 20
438841.511
 30
0.0
 11
209432.591
 21
438840.595
 31
0.0
1001
ToXml
1000
boogpunt1=
1000
boogpunt2=
1000
boogpunt3=
1000
ngdw_id=0
  0
LINE
  5
1BFB
330
1CE1
100
AcDbEntity
  8
G01
 62
     7
100
AcDbLine
 10
209417.526
 20
438864.962
 30
0.0
 11
209443.821
 21
438881.522
 31
0.0
1001
ToXml
1000
boogpunt1=
1000
boogpunt2=
1000
boogpunt3=
1000
ngdw_id=0
  0
LINE
  5
1BFC
330
1CE1
100
AcDbEntity
  8
G01
 62
     7
100
AcDbLine
 10
209432.591
 20
438840.595
 30
0.0
 11
209444.85
 21
438829.24
 31
0.0
1001
ToXml
1000
boogpunt1=
1000
boogpunt2=
1000
boogpunt3=
1000
ngdw_id=0
  0
LINE
  5
1BFD
330
1CE1
100
AcDbEntity
  8
G01
 62
     7
100
AcDbLine
 10
209443.821
 20
438881.522
 30
0.0
 11
209452.823
 21
438887.061
 31
0.0
1001
ToXml
1000
boogpunt1=
1000
boogpunt2=
1000
boogpunt3=
1000
ngdw_id=0
  0
LINE
  5
1BFE
330
1CE1
100
AcDbEntity
  8
G01
 62
     7
100
AcDbLine
 10
209444.85
 20
438829.24
 30
0.0
 11
209446.79
 21
438827.288
 31
0.0
1001
ToXml
1000
boogpunt1=
1000
boogpunt2=
1000
boogpunt3=
1000
ngdw_id=0
  0
LINE
  5
1BFF
330
1CE1
100
AcDbEntity
  8
G01
 62
     7
100
AcDbLine
 10
209444.85
 20
438829.24
 30
0.0
 11
209452.823
 21
438887.061
 31
0.0
1001
ToXml
1000
boogpunt1=
1000
boogpunt2=
1000
boogpunt3=
1000
ngdw_id=0
  0
LINE
  5
1C00
330
1CE1
100
AcDbEntity
  8
G01
 62
     7
100
AcDbLine
 10
209446.79
 20
438827.288
 30
0.0
 11
209459.965
 21
438817.613
 31
0.0
1001
ToXml
1000
boogpunt1=
1000
boogpunt2=
1000
boogpunt3=
1000
ngdw_id=0
  0
LINE
  5
1C01
330
1CE1
100
AcDbEntity
  8
G01
 62
     7
100
AcDbLine
 10
209459.965
 20
438817.613
 30
0.0
 11
209490.484
 21
438799.564
 31
0.0
1001
ToXml
1000
boogpunt1=
1000
boogpunt2=
1000
boogpunt3=
1000
ngdw_id=0
  0
LINE
  5
1C02
330
1CE1
100
AcDbEntity
  8
G01
 62
     7
100
AcDbLine
 10
209452.823
 20
438887.061
 30
0.0
 11
209456.908
 21
438890.535
 31
0.0
1001
ToXml
1000
boogpunt1=
1000
boogpunt2=
1000
boogpunt3=
1000
ngdw_id=0
  0
LINE
  5
1C03
330
1CE1
100
AcDbEntity
  8
G01
 62
     7
100
AcDbLine
 10
209456.908
 20
438890.535
 30
0.0
 11
209481.128
 21
438906.363
 31
0.0
1001
ToXml
1000
boogpunt1=
1000
boogpunt2=
1000
boogpunt3=
1000
ngdw_id=0
  0
LINE
  5
1C04
330
1CE1
100
AcDbEntity
  8
G01
 62
     7
100
AcDbLine
 10
209481.128
 20
438906.363
 30
0.0
 11
209536.466
 21
438875.503
 31
0.0
1001
ToXml
1000
boogpunt1=
1000
boogpunt2=
1000
boogpunt3=
1000
ngdw_id=0
  0
LINE
  5
1C05
330
1CE1
100
AcDbEntity
  8
G01
 62
     7
100
AcDbLine
 10
209536.466
 20
438875.503
 30
0.0
 11
209580.777
 21
438851.297
 31
0.0
1001
ToXml
1000
boogpunt1=
1000
boogpunt2=
1000
boogpunt3=
1000
ngdw_id=0
  0
LINE
  5
1C06
330
1CE1
100
AcDbEntity
  8
G01
 62
     7
100
AcDbLine
 10
209481.128
 20
438906.363
 30
0.0
 11
209515.251
 21
438928.7
 31
0.0
1001
ToXml
1000
boogpunt1=
1000
boogpunt2=
1000
boogpunt3=
1000
ngdw_id=0
  0
LINE
  5
1C07
330
1CE1
100
AcDbEntity
  8
G01
 62
     7
100
AcDbLine
 10
209490.484
 20
438799.564
 30
0.0
 11
209493.468
 21
438805.404
 31
0.0
1001
ToXml
1000
boogpunt1=
1000
boogpunt2=
1000
boogpunt3=
1000
ngdw_id=0
  0
LINE
  5
1C08
330
1CE1
100
AcDbEntity
  8
G01
 62
     7
100
AcDbLine
 10
209493.468
 20
438805.404
 30
0.0
 11
209505.62
 21
438798.383
 31
0.0
1001
ToXml
1000
boogpunt1=
1000
boogpunt2=
1000
boogpunt3=
1000
ngdw_id=0
  0
LINE
  5
1C09
330
1CE1
100
AcDbEntity
  8
G01
 62
     7
100
AcDbLine
 10
209505.62
 20
438798.383
 30
0.0
 11
209543.747
 21
438776.067
 31
0.0
1001
ToXml
1000
boogpunt1=
1000
boogpunt2=
1000
boogpunt3=
1000
ngdw_id=0
  0
LINE
  5
1C0A
330
1CE1
100
AcDbEntity
  8
G01
 62
     7
100
AcDbLine
 10
209515.251
 20
438928.7
 30
0.0
 11
209540.619
 21
438943.197
 31
0.0
1001
ToXml
1000
boogpunt1=
1000
boogpunt2=
1000
boogpunt3=
1000
ngdw_id=0
  0
LINE
  5
1C0B
330
1CE1
100
AcDbEntity
  8
G01
 62
     7
100
AcDbLine
 10
209540.619
 20
438943.197
 30
0.0
 11
209556.538
 21
438950.087
 31
0.0
1001
ToXml
1000
boogpunt1=
1000
boogpunt2=
1000
boogpunt3=
1000
ngdw_id=0
  0
LINE
  5
1C0C
330
1CE1
100
AcDbEntity
  8
G01
 62
     7
100
AcDbLine
 10
209556.538
 20
438950.087
 30
0.0
 11
209566.834
 21
438954.097
 31
0.0
1001
ToXml
1000
boogpunt1=
1000
boogpunt2=
1000
boogpunt3=
1000
ngdw_id=0
  0
LINE
  5
1C0D
330
1CE1
100
AcDbEntity
  8
G01
 62
     7
100
AcDbLine
 10
209566.834
 20
438954.097
 30
0.0
 11
209573.114
 21
438956.437
 31
0.0
1001
ToXml
1000
boogpunt1=
1000
boogpunt2=
1000
boogpunt3=
1000
ngdw_id=0
  0
LINE
  5
1C0E
330
1CE1
100
AcDbEntity
  8
G01
 62
     7
100
AcDbLine
 10
209573.114
 20
438956.437
 30
0.0
 11
209595.601
 21
438962.377
 31
0.0
1001
ToXml
1000
boogpunt1=
1000
boogpunt2=
1000
boogpunt3=
1000
ngdw_id=0
  0
LINE
  5
1C0F
330
1CE1
100
AcDbEntity
  8
G01
 62
     7
100
AcDbLine
 10
209595.601
 20
438962.377
 30
0.0
 11
209617.624
 21
438966.176
 31
0.0
1001
ToXml
1000
boogpunt1=
1000
boogpunt2=
1000
boogpunt3=
1000
ngdw_id=0
  0
LINE
  5
1C10
330
1CE1
100
AcDbEntity
  8
G01
 62
     7
100
AcDbLine
 10
209617.624
 20
438966.176
 30
0.0
 11
209625.003
 21
438966.917
 31
0.0
1001
ToXml
1000
boogpunt1=
1000
boogpunt2=
1000
boogpunt3=
1000
ngdw_id=0
  0
LINE
  5
1C11
330
1CE1
100
AcDbEntity
  8
G01
 62
     7
100
AcDbLine
 10
209625.003
 20
438966.917
 30
0.0
 11
209630.567
 21
438967.336
 31
0.0
1001
ToXml
1000
boogpunt1=
1000
boogpunt2=
1000
boogpunt3=
1000
ngdw_id=0
  0
LINE
  5
1C12
330
1CE1
100
AcDbEntity
  8
G01
 62
     7
100
AcDbLine
 10
209630.567
 20
438967.336
 30
0.0
 11
209641.353
 21
438968.087
 31
0.0
1001
ToXml
1000
boogpunt1=
1000
boogpunt2=
1000
boogpunt3=
1000
ngdw_id=0
  0
LINE
  5
1C13
330
1CE1
100
AcDbEntity
  8
G01
 62
     7
100
AcDbLine
 10
209641.353
 20
438968.087
 30
0.0
 11
209655.592
 21
438968.216
 31
0.0
1001
ToXml
1000
boogpunt1=
1000
boogpunt2=
1000
boogpunt3=
1000
ngdw_id=0
  0
LINE
  5
1C14
330
1CE1
100
AcDbEntity
  8
G01
 62
     7
100
AcDbLine
 10
209522.09
 20
438632.512
 30
0.0
 11
209537.752
 21
438621.692
 31
0.0
1001
ToXml
1000
boogpunt1=
1000
boogpunt2=
1000
boogpunt3=
1000
ngdw_id=0
  0
LINE
  5
1C15
330
1CE1
100
AcDbEntity
  8
G01
 62
     7
100
AcDbLine
 10
209537.752
 20
438621.692
 30
0.0
 11
209550.49
 21
438613.103
 31
0.0
1001
ToXml
1000
boogpunt1=
1000
boogpunt2=
1000
boogpunt3=
1000
ngdw_id=0
  0
LINE
  5
1C16
330
1CE1
100
AcDbEntity
  8
G01
 62
     7
100
AcDbLine
 10
209531.791
 20
438519.907
 30
0.0
 11
209553.438
 21
438553.622
 31
0.0
1001
ToXml
1000
boogpunt1=
1000
boogpunt2=
1000
boogpunt3=
1000
ngdw_id=0
  0
LINE
  5
1C17
330
1CE1
100
AcDbEntity
  8
G01
 62
     7
100
AcDbLine
 10
209540.817
 20
438770.325
 30
0.0
 11
209543.747
 21
438776.067
 31
0.0
1001
ToXml
1000
boogpunt1=
1000
boogpunt2=
1000
boogpunt3=
1000
ngdw_id=0
  0
LINE
  5
1C18
330
1CE1
100
AcDbEntity
  8
G01
 62
     7
100
AcDbLine
 10
209543.747
 20
438776.067
 30
0.0
 11
209559.059
 21
438807.174
 31
0.0
1001
ToXml
1000
boogpunt1=
1000
boogpunt2=
1000
boogpunt3=
1000
ngdw_id=0
  0
LINE
  5
1C19
330
1CE1
100
AcDbEntity
  8
G01
 62
     7
100
AcDbLine
 10
209553.438
 20
438553.622
 30
0.0
 11
209576.047
 21
438587.267
 31
0.0
1001
ToXml
1000
boogpunt1=
1000
boogpunt2=
1000
boogpunt3=
1000
ngdw_id=0
  0
LINE
  5
1C1A
330
1CE1
100
AcDbEntity
  8
G01
 62
     7
100
AcDbLine
 10
209559.059
 20
438807.174
 30
0.0
 11
209615.832
 21
438775.97
 31
0.0
1001
ToXml
1000
boogpunt1=
1000
boogpunt2=
1000
boogpunt3=
1000
ngdw_id=0
  0
LINE
  5
1C1B
330
1CE1
100
AcDbEntity
  8
G01
 62
     7
100
AcDbLine
 10
209615.832
 20
438775.97
 30
0.0
 11
209594.764
 21
438738.179
 31
0.0
1001
ToXml
1000
boogpunt1=
1000
boogpunt2=
1000
boogpunt3=
1000
ngdw_id=0
  0
LINE
  5
1C1C
330
1CE1
100
AcDbEntity
  8
G01
 62
     7
100
AcDbLine
 10
209559.059
 20
438807.174
 30
0.0
 11
209580.777
 21
438851.297
 31
0.0
1001
ToXml
1000
boogpunt1=
1000
boogpunt2=
1000
boogpunt3=
1000
ngdw_id=0
  0
LINE
  5
1C1D
330
1CE1
100
AcDbEntity
  8
G01
 62
     7
100
AcDbLine
 10
209569.997
 20
438600.305
 30
0.0
 11
209570.055
 21
438600.267
 31
0.0
1001
ToXml
1000
boogpunt1=
1000
boogpunt2=
1000
boogpunt3=
1000
ngdw_id=0
  0
LINE
  5
1C1E
330
1CE1
100
AcDbEntity
  8
G01
 62
     7
100
AcDbLine
 10
209591.035
 20
438577.201
 30
0.0
 11
209576.047
 21
438587.267
 31
0.0
1001
ToXml
1000
boogpunt1=
1000
boogpunt2=
1000
boogpunt3=
1000
ngdw_id=0
  0
LINE
  5
1C1F
330
1CE1
100
AcDbEntity
  8
G01
 62
     7
100
AcDbLine
 10
209580.777
 20
438851.297
 30
0.0
 11
209647.135
 21
438821.311
 31
0.0
1001
ToXml
1000
boogpunt1=
1000
boogpunt2=
1000
boogpunt3=
1000
ngdw_id=0
  0
LINE
  5
1C20
330
1CE1
100
AcDbEntity
  8
G01
 62
     7
100
AcDbLine
 10
209586.513
 20
438972.507
 30
0.0
 11
209606.376
 21
438976.565
 31
0.0
1001
ToXml
1000
boogpunt1=
1000
boogpunt2=
1000
boogpunt3=
1000
ngdw_id=0
  0
LINE
  5
1C21
330
1CE1
100
AcDbEntity
  8
G01
 62
     7
100
AcDbLine
 10
209606.376
 20
438976.565
 30
0.0
 11
209621.408
 21
438978.781
 31
0.0
1001
ToXml
1000
boogpunt1=
1000
boogpunt2=
1000
boogpunt3=
1000
ngdw_id=0
  0
LINE
  5
1C22
330
1CE1
100
AcDbEntity
  8
G01
 62
     7
100
AcDbLine
 10
209621.408
 20
438978.781
 30
0.0
 11
209635.199
 21
438980.029
 31
0.0
1001
ToXml
1000
boogpunt1=
1000
boogpunt2=
1000
boogpunt3=
1000
ngdw_id=0
  0
LINE
  5
1C23
330
1CE1
100
AcDbEntity
  8
G01
 62
     7
100
AcDbLine
 10
209635.199
 20
438980.029
 30
0.0
 11
209639.31
 21
438979.895
 31
0.0
1001
ToXml
1000
boogpunt1=
1000
boogpunt2=
1000
boogpunt3=
1000
ngdw_id=0
  0
LINE
  5
1C24
330
1CE1
100
AcDbEntity
  8
G01
 62
     7
100
AcDbLine
 10
209639.31
 20
438979.895
 30
0.0
 11
209644.898
 21
438979.973
 31
0.0
1001
ToXml
1000
boogpunt1=
1000
boogpunt2=
1000
boogpunt3=
1000
ngdw_id=0
  0
LINE
  5
1C25
330
1CE1
100
AcDbEntity
  8
G01
 62
     7
100
AcDbLine
 10
209644.898
 20
438979.973
 30
0.0
 11
209645.251
 21
438981.751
 31
0.0
1001
ToXml
1000
boogpunt1=
1000
boogpunt2=
1000
boogpunt3=
1000
ngdw_id=0
  0
LINE
  5
1C26
330
1CE1
100
AcDbEntity
  8
G01
 62
     7
100
AcDbLine
 10
209595.464
 20
438583.597
 30
0.0
 11
209591.035
 21
438577.201
 31
0.0
1001
ToXml
1000
boogpunt1=
1000
boogpunt2=
1000
boogpunt3=
1000
ngdw_id=0
  0
LINE
  5
1C27
330
1CE1
100
AcDbEntity
  8
G01
 62
     7
100
AcDbLine
 10
209649.622
 20
439000.0
 30
0.0
 11
209645.251
 21
438981.751
 31
0.0
1001
ToXml
1000
boogpunt1=
1000
boogpunt2=
1000
boogpunt3=
1000
ngdw_id=0
  0
LINE
  5
1C28
330
1CE1
100
AcDbEntity
  8
G01
 62
     7
100
AcDbLine
 10
209638.183
 20
438705.325
 30
0.0
 11
209638.98
 21
438704.853
 31
0.0
1001
ToXml
1000
boogpunt1=
1000
boogpunt2=
1000
boogpunt3=
1000
ngdw_id=0
  0
LINE
  5
1C29
330
1CE1
100
AcDbEntity
  8
G01
 62
     7
100
AcDbLine
 10
209587.615
 20
438734.957
 30
0.0
 11
209588.643
 21
438734.361
 31
0.0
1001
ToXml
1000
boogpunt1=
1000
boogpunt2=
1000
boogpunt3=
1000
ngdw_id=0
  0
LINE
  5
1C2A
330
1CE1
100
AcDbEntity
  8
G01
 62
     7
100
AcDbLine
 10
209517.398
 20
438626.673
 30
0.0
 11
209540.445
 21
438611.312
 31
0.0
1001
ToXml
1000
boogpunt1=
1000
boogpunt2=
1000
boogpunt3=
1000
ngdw_id=0
  0
LINE
  5
1C2B
330
1CE1
100
AcDbEntity
  8
G01
 62
     7
100
AcDbLine
 10
209540.445
 20
438611.312
 30
0.0
 11
209566.018
 21
438594.04
 31
0.0
1001
ToXml
1000
boogpunt1=
1000
boogpunt2=
1000
boogpunt3=
1000
ngdw_id=0
  0
LINE
  5
1C2C
330
1CE1
100
AcDbEntity
  8
G01
 62
     7
100
AcDbLine
 10
209566.018
 20
438594.04
 30
0.0
 11
209576.047
 21
438587.267
 31
0.0
1001
ToXml
1000
boogpunt1=
1000
boogpunt2=
1000
boogpunt3=
1000
ngdw_id=0
  0
LINE
  5
1C2D
330
1CE1
100
AcDbEntity
  8
G01
 62
     7
100
AcDbLine
 10
209521.454
 20
438632.93
 30
0.0
 11
209587.615
 21
438734.957
 31
0.0
1001
ToXml
1000
boogpunt1=
1000
boogpunt2=
1000
boogpunt3=
1000
ngdw_id=0
  0
LINE
  5
1C2E
330
1CE1
100
AcDbEntity
  8
G01
 62
     7
100
AcDbLine
 10
209521.454
 20
438632.93
 30
0.0
 11
209522.09
 21
438632.512
 31
0.0
1001
ToXml
1000
boogpunt1=
1000
boogpunt2=
1000
boogpunt3=
1000
ngdw_id=0
  0
LINE
  5
1C2F
330
1CE1
100
AcDbEntity
  8
G01
 62
     7
100
AcDbLine
 10
209570.055
 20
438600.267
 30
0.0
 11
209638.183
 21
438705.325
 31
0.0
1001
ToXml
1000
boogpunt1=
1000
boogpunt2=
1000
boogpunt3=
1000
ngdw_id=0
  0
LINE
  5
1C30
330
1CE1
100
AcDbEntity
  8
G01
 62
     7
100
AcDbLine
 10
209550.49
 20
438613.103
 30
0.0
 11
209569.997
 21
438600.305
 31
0.0
1001
ToXml
1000
boogpunt1=
1000
boogpunt2=
1000
boogpunt3=
1000
ngdw_id=0
  0
LINE
  5
1C31
330
1CE1
100
AcDbEntity
  8
G01
 62
     7
100
AcDbLine
 10
209570.055
 20
438600.267
 30
0.0
 11
209595.464
 21
438583.597
 31
0.0
1001
ToXml
1000
boogpunt1=
1000
boogpunt2=
1000
boogpunt3=
1000
ngdw_id=0
  0
LINE
  5
1C32
330
1CE1
100
AcDbEntity
  8
G01
 62
     7
100
AcDbLine
 10
209016.777
 20
438603.942
 30
0.0
 11
209031.893
 21
438598.009
 31
0.0
1001
ToXml
1000
boogpunt1=
1000
boogpunt2=
1000
boogpunt3=
1000
ngdw_id=0
  0
LINE
  5
1C33
330
1CE1
100
AcDbEntity
  8
G01
 62
     7
100
AcDbLine
 10
209031.893
 20
438598.009
 30
0.0
 11
209042.753
 21
438592.875
 31
0.0
1001
ToXml
1000
boogpunt1=
1000
boogpunt2=
1000
boogpunt3=
1000
ngdw_id=0
  0
LINE
  5
1C34
330
1CE1
100
AcDbEntity
  8
G01
 62
     7
100
AcDbLine
 10
209042.753
 20
438592.875
 30
0.0
 11
209128.259
 21
438536.16
 31
0.0
1001
ToXml
1000
boogpunt1=
1000
boogpunt2=
1000
boogpunt3=
1000
ngdw_id=0
  0
LINE
  5
1C35
330
1CE1
100
AcDbEntity
  8
G01
 62
     7
100
AcDbLine
 10
208929.653
 20
438960.995
 30
0.0
 11
208934.164
 21
438973.226
 31
0.0
1001
ToXml
1000
boogpunt1=
1000
boogpunt2=
1000
boogpunt3=
1000
ngdw_id=0
  0
LINE
  5
1C36
330
1CE1
100
AcDbEntity
  8
G01
 62
     7
100
AcDbLine
 10
208934.164
 20
438973.226
 30
0.0
 11
208936.823
 21
438979.901
 31
0.0
1001
ToXml
1000
boogpunt1=
1000
boogpunt2=
1000
boogpunt3=
1000
ngdw_id=0
  0
LINE
  5
1C37
330
1CE1
100
AcDbEntity
  8
G01
 62
     7
100
AcDbLine
 10
209130.68
 20
438534.627
 30
0.0
 11
209127.516
 21
438528.039
 31
0.0
1001
ToXml
1000
boogpunt1=
1000
boogpunt2=
1000
boogpunt3=
1000
ngdw_id=0
  0
LINE
  5
1C38
330
1CE1
100
AcDbEntity
  8
G01
 62
     7
100
AcDbLine
 10
209128.259
 20
438536.16
 30
0.0
 11
209130.68
 21
438534.627
 31
0.0
1001
ToXml
1000
boogpunt1=
1000
boogpunt2=
1000
boogpunt3=
1000
ngdw_id=0
  0
LINE
  5
1C39
330
1CE1
100
AcDbEntity
  8
G01
 62
     7
100
AcDbLine
 10
209128.259
 20
438536.16
 30
0.0
 11
209132.093
 21
438545.652
 31
0.0
1001
ToXml
1000
boogpunt1=
1000
boogpunt2=
1000
boogpunt3=
1000
ngdw_id=0
  0
LINE
  5
1C3A
330
1CE1
100
AcDbEntity
  8
G01
 62
     7
100
AcDbLine
 10
209132.093
 20
438545.652
 30
0.0
 11
209139.734
 21
438563.101
 31
0.0
1001
ToXml
1000
boogpunt1=
1000
boogpunt2=
1000
boogpunt3=
1000
ngdw_id=0
  0
LINE
  5
1C3B
330
1CE1
100
AcDbEntity
  8
G01
 62
     7
100
AcDbLine
 10
209139.734
 20
438563.101
 30
0.0
 11
209147.327
 21
438581.169
 31
0.0
1001
ToXml
1000
boogpunt1=
1000
boogpunt2=
1000
boogpunt3=
1000
ngdw_id=0
  0
LINE
  5
1C3C
330
1CE1
100
AcDbEntity
  8
G01
 62
     7
100
AcDbLine
 10
209147.327
 20
438581.169
 30
0.0
 11
209155.747
 21
438601.311
 31
0.0
1001
ToXml
1000
boogpunt1=
1000
boogpunt2=
1000
boogpunt3=
1000
ngdw_id=0
  0
LINE
  5
1C3D
330
1CE1
100
AcDbEntity
  8
G01
 62
     7
100
AcDbLine
 10
209155.747
 20
438601.311
 30
0.0
 11
209163.952
 21
438620.253
 31
0.0
1001
ToXml
1000
boogpunt1=
1000
boogpunt2=
1000
boogpunt3=
1000
ngdw_id=0
  0
LINE
  5
1C3E
330
1CE1
100
AcDbEntity
  8
G01
 62
     7
100
AcDbLine
 10
209163.952
 20
438620.253
 30
0.0
 11
209164.777
 21
438622.555
 31
0.0
1001
ToXml
1000
boogpunt1=
1000
boogpunt2=
1000
boogpunt3=
1000
ngdw_id=0
  0
LINE
  5
1C3F
330
1CE1
100
AcDbEntity
  8
G01
 62
     7
100
AcDbLine
 10
209164.777
 20
438622.555
 30
0.0
 11
209194.676
 21
438692.397
 31
0.0
1001
ToXml
1000
boogpunt1=
1000
boogpunt2=
1000
boogpunt3=
1000
ngdw_id=0
  0
LINE
  5
1C40
330
1CE1
100
AcDbEntity
  8
G01
 62
     7
100
AcDbLine
 10
209194.676
 20
438692.397
 30
0.0
 11
209199.751
 21
438701.018
 31
0.0
1001
ToXml
1000
boogpunt1=
1000
boogpunt2=
1000
boogpunt3=
1000
ngdw_id=0
  0
LINE
  5
1C41
330
1CE1
100
AcDbEntity
  8
G01
 62
     7
100
AcDbLine
 10
209209.185
 20
438717.043
 30
0.0
 11
209209.315
 21
438717.217
 31
0.0
1001
ToXml
1000
boogpunt1=
1000
boogpunt2=
1000
boogpunt3=
1000
ngdw_id=0
  0
LINE
  5
1C42
330
1CE1
100
AcDbEntity
  8
G01
 62
     7
100
AcDbLine
 10
209222.51
 20
438734.884
 30
0.0
 11
209224.731
 21
438738.107
 31
0.0
1001
ToXml
1000
boogpunt1=
1000
boogpunt2=
1000
boogpunt3=
1000
ngdw_id=0
  0
LINE
  5
1C43
330
1CE1
100
AcDbEntity
  8
G01
 62
     7
100
AcDbLine
 10
209224.731
 20
438738.107
 30
0.0
 11
209231.857
 21
438746.771
 31
0.0
1001
ToXml
1000
boogpunt1=
1000
boogpunt2=
1000
boogpunt3=
1000
ngdw_id=0
  0
LINE
  5
1C44
330
1CE1
100
AcDbEntity
  8
G01
 62
     7
100
AcDbLine
 10
209231.857
 20
438746.771
 30
0.0
 11
209240.936
 21
438756.548
 31
0.0
1001
ToXml
1000
boogpunt1=
1000
boogpunt2=
1000
boogpunt3=
1000
ngdw_id=0
  0
LINE
  5
1C45
330
1CE1
100
AcDbEntity
  8
G01
 62
     7
100
AcDbLine
 10
209240.936
 20
438756.548
 30
0.0
 11
209258.594
 21
438773.632
 31
0.0
1001
ToXml
1000
boogpunt1=
1000
boogpunt2=
1000
boogpunt3=
1000
ngdw_id=0
  0
LINE
  5
1C46
330
1CE1
100
AcDbEntity
  8
G01
 62
     7
100
AcDbLine
 10
209258.594
 20
438773.632
 30
0.0
 11
209266.84
 21
438780.059
 31
0.0
1001
ToXml
1000
boogpunt1=
1000
boogpunt2=
1000
boogpunt3=
1000
ngdw_id=0
  0
LINE
  5
1C47
330
1CE1
100
AcDbEntity
  8
G01
 62
     7
100
AcDbLine
 10
209266.84
 20
438780.059
 30
0.0
 11
209274.742
 21
438786.571
 31
0.0
1001
ToXml
1000
boogpunt1=
1000
boogpunt2=
1000
boogpunt3=
1000
ngdw_id=0
  0
LINE
  5
1C48
330
1CE1
100
AcDbEntity
  8
G01
 62
     7
100
AcDbLine
 10
209274.742
 20
438786.571
 30
0.0
 11
209371.438
 21
438849.846
 31
0.0
1001
ToXml
1000
boogpunt1=
1000
boogpunt2=
1000
boogpunt3=
1000
ngdw_id=0
  0
LINE
  5
1C49
330
1CE1
100
AcDbEntity
  8
G01
 62
     7
100
AcDbLine
 10
209371.438
 20
438849.846
 30
0.0
 11
209373.327
 21
438850.53
 31
0.0
1001
ToXml
1000
boogpunt1=
1000
boogpunt2=
1000
boogpunt3=
1000
ngdw_id=0
  0
LINE
  5
1C4A
330
1CE1
100
AcDbEntity
  8
G01
 62
     7
100
AcDbLine
 10
209373.327
 20
438850.53
 30
0.0
 11
209389.596
 21
438862.36
 31
0.0
1001
ToXml
1000
boogpunt1=
1000
boogpunt2=
1000
boogpunt3=
1000
ngdw_id=0
  0
LINE
  5
1C4B
330
1CE1
100
AcDbEntity
  8
G01
 62
     7
100
AcDbLine
 10
209389.596
 20
438862.36
 30
0.0
 11
209421.168
 21
438883.367
 31
0.0
1001
ToXml
1000
boogpunt1=
1000
boogpunt2=
1000
boogpunt3=
1000
ngdw_id=0
  0
LINE
  5
1C4C
330
1CE1
100
AcDbEntity
  8
G01
 62
     7
100
AcDbLine
 10
209421.168
 20
438883.367
 30
0.0
 11
209424.366
 21
438884.48
 31
0.0
1001
ToXml
1000
boogpunt1=
1000
boogpunt2=
1000
boogpunt3=
1000
ngdw_id=0
  0
LINE
  5
1C4D
330
1CE1
100
AcDbEntity
  8
G01
 62
     7
100
AcDbLine
 10
208936.823
 20
438979.901
 30
0.0
 11
208944.83
 21
439000.0
 31
0.0
1001
ToXml
1000
boogpunt1=
1000
boogpunt2=
1000
boogpunt3=
1000
ngdw_id=0
  0
LINE
  5
1C4E
330
1CE1
100
AcDbEntity
  8
G01
 62
     7
100
AcDbLine
 10
209025.763
 20
438941.769
 30
0.0
 11
208972.407
 21
438952.442
 31
0.0
1001
ToXml
1000
boogpunt1=
1000
boogpunt2=
1000
boogpunt3=
1000
ngdw_id=0
  0
LINE
  5
1C4F
330
1CE1
100
AcDbEntity
  8
G01
 62
     7
100
AcDbLine
 10
209039.807
 20
439000.0
 30
0.0
 11
209025.763
 21
438941.769
 31
0.0
1001
ToXml
1000
boogpunt1=
1000
boogpunt2=
1000
boogpunt3=
1000
ngdw_id=0
  0
LINE
  5
1C50
330
1CE1
100
AcDbEntity
  8
G01
 62
     7
100
AcDbLine
 10
209209.315
 20
438717.217
 30
0.0
 11
209222.51
 21
438734.884
 31
0.0
1001
ToXml
1000
boogpunt1=
1000
boogpunt2=
1000
boogpunt3=
1000
ngdw_id=0
  0
LINE
  5
1C51
330
1CE1
100
AcDbEntity
  8
G01
 62
     7
100
AcDbLine
 10
209199.751
 20
438701.018
 30
0.0
 11
209209.185
 21
438717.043
 31
0.0
1001
ToXml
1000
boogpunt1=
1000
boogpunt2=
1000
boogpunt3=
1000
ngdw_id=0
  0
LINE
  5
1C52
330
1CE1
100
AcDbEntity
  8
G01
 62
     7
100
AcDbLine
 10
209199.751
 20
438701.018
 30
0.0
 11
209163.085
 21
438724.956
 31
0.0
1001
ToXml
1000
boogpunt1=
1000
boogpunt2=
1000
boogpunt3=
1000
ngdw_id=0
  0
LINE
  5
1C53
330
1CE1
100
AcDbEntity
  8
G01
 62
     7
100
AcDbLine
 10
209163.085
 20
438724.956
 30
0.0
 11
209170.67
 21
438736.664
 31
0.0
1001
ToXml
1000
boogpunt1=
1000
boogpunt2=
1000
boogpunt3=
1000
ngdw_id=0
  0
LINE
  5
1C54
330
1CE1
100
AcDbEntity
  8
G01
 62
     7
100
AcDbLine
 10
209170.67
 20
438736.664
 30
0.0
 11
209180.959
 21
438730.06
 31
0.0
1001
ToXml
1000
boogpunt1=
1000
boogpunt2=
1000
boogpunt3=
1000
ngdw_id=0
  0
LINE
  5
1C55
330
1CE1
100
AcDbEntity
  8
G01
 62
     7
100
AcDbLine
 10
209180.959
 20
438730.06
 30
0.0
 11
209182.551
 21
438729.362
 31
0.0
1001
ToXml
1000
boogpunt1=
1000
boogpunt2=
1000
boogpunt3=
1000
ngdw_id=0
  0
LINE
  5
1C56
330
1CE1
100
AcDbEntity
  8
G01
 62
     7
100
AcDbLine
 10
209182.551
 20
438729.362
 30
0.0
 11
209185.128
 21
438728.213
 31
0.0
1001
ToXml
1000
boogpunt1=
1000
boogpunt2=
1000
boogpunt3=
1000
ngdw_id=0
  0
LINE
  5
1C57
330
1CE1
100
AcDbEntity
  8
G01
 62
     7
100
AcDbLine
 10
209185.128
 20
438728.213
 30
0.0
 11
209190.243
 21
438725.961
 31
0.0
1001
ToXml
1000
boogpunt1=
1000
boogpunt2=
1000
boogpunt3=
1000
ngdw_id=0
  0
LINE
  5
1C58
330
1CE1
100
AcDbEntity
  8
G01
 62
     7
100
AcDbLine
 10
209190.243
 20
438725.961
 30
0.0
 11
209192.268
 21
438729.168
 31
0.0
1001
ToXml
1000
boogpunt1=
1000
boogpunt2=
1000
boogpunt3=
1000
ngdw_id=0
  0
LINE
  5
1C59
330
1CE1
100
AcDbEntity
  8
G01
 62
     7
100
AcDbLine
 10
209192.268
 20
438729.168
 30
0.0
 11
209195.997
 21
438726.812
 31
0.0
1001
ToXml
1000
boogpunt1=
1000
boogpunt2=
1000
boogpunt3=
1000
ngdw_id=0
  0
LINE
  5
1C5A
330
1CE1
100
AcDbEntity
  8
G01
 62
     7
100
AcDbLine
 10
209195.997
 20
438726.812
 30
0.0
 11
209196.115
 21
438726.738
 31
0.0
1001
ToXml
1000
boogpunt1=
1000
boogpunt2=
1000
boogpunt3=
1000
ngdw_id=0
  0
LINE
  5
1C5B
330
1CE1
100
AcDbEntity
  8
G01
 62
     7
100
AcDbLine
 10
209196.115
 20
438726.738
 30
0.0
 11
209195.651
 21
438725.996
 31
0.0
1001
ToXml
1000
boogpunt1=
1000
boogpunt2=
1000
boogpunt3=
1000
ngdw_id=0
  0
LINE
  5
1C5C
330
1CE1
100
AcDbEntity
  8
G01
 62
     7
100
AcDbLine
 10
209195.651
 20
438725.996
 30
0.0
 11
209198.233
 21
438724.382
 31
0.0
1001
ToXml
1000
boogpunt1=
1000
boogpunt2=
1000
boogpunt3=
1000
ngdw_id=0
  0
LINE
  5
1C5D
330
1CE1
100
AcDbEntity
  8
G01
 62
     7
100
AcDbLine
 10
209198.233
 20
438724.382
 30
0.0
 11
209198.159
 21
438724.264
 31
0.0
1001
ToXml
1000
boogpunt1=
1000
boogpunt2=
1000
boogpunt3=
1000
ngdw_id=0
  0
LINE
  5
1C5E
330
1CE1
100
AcDbEntity
  8
G01
 62
     7
100
AcDbLine
 10
209198.159
 20
438724.264
 30
0.0
 11
209209.315
 21
438717.217
 31
0.0
1001
ToXml
1000
boogpunt1=
1000
boogpunt2=
1000
boogpunt3=
1000
ngdw_id=0
  0
LINE
  5
1C5F
330
1CE1
100
AcDbEntity
  8
G01
 62
     7
100
AcDbLine
 10
209122.344
 20
438517.27
 30
0.0
 11
209127.516
 21
438528.039
 31
0.0
1001
ToXml
1000
boogpunt1=
1000
boogpunt2=
1000
boogpunt3=
1000
ngdw_id=0
  0
LINE
  5
1C60
330
1CE1
100
AcDbEntity
  8
G01
 62
     7
100
AcDbLine
 10
209078.169
 20
438493.638
 30
0.0
 11
209101.963
 21
438483.272
 31
0.0
1001
ToXml
1000
boogpunt1=
1000
boogpunt2=
1000
boogpunt3=
1000
ngdw_id=0
  0
LINE
  5
1C61
330
1CE1
100
AcDbEntity
  8
G01
 62
     7
100
AcDbLine
 10
209122.344
 20
438517.27
 30
0.0
 11
209099.211
 21
438528.505
 31
0.0
1001
ToXml
1000
boogpunt1=
1000
boogpunt2=
1000
boogpunt3=
1000
ngdw_id=0
  0
LINE
  5
1C62
330
1CE1
100
AcDbEntity
  8
G01
 62
     7
100
AcDbLine
 10
209099.211
 20
438528.505
 30
0.0
 11
209094.174
 21
438517.45
 31
0.0
1001
ToXml
1000
boogpunt1=
1000
boogpunt2=
1000
boogpunt3=
1000
ngdw_id=0
  0
LINE
  5
1C63
330
1CE1
100
AcDbEntity
  8
G01
 62
     7
100
AcDbLine
 10
209094.174
 20
438517.45
 30
0.0
 11
209090.283
 21
438519.341
 31
0.0
1001
ToXml
1000
boogpunt1=
1000
boogpunt2=
1000
boogpunt3=
1000
ngdw_id=0
  0
LINE
  5
1C64
330
1CE1
100
AcDbEntity
  8
G01
 62
     7
100
AcDbLine
 10
209090.283
 20
438519.341
 30
0.0
 11
209078.169
 21
438493.638
 31
0.0
1001
ToXml
1000
boogpunt1=
1000
boogpunt2=
1000
boogpunt3=
1000
ngdw_id=0
  0
LINE
  5
1C65
330
1CE1
100
AcDbEntity
  8
S07
 62
     7
100
AcDbLine
 10
209077.253
 20
439095.464
 30
0.0
 11
209071.026
 21
439100.548
 31
0.0
  0
LINE
  5
1C66
330
1CE1
100
AcDbEntity
  8
S07
 62
     7
100
AcDbLine
 10
209076.6815
 20
439101.1195
 30
0.0
 11
209071.026
 21
439100.548
 31
0.0
  0
LINE
  5
1C67
330
1CE1
100
AcDbEntity
  8
S07
 62
     7
100
AcDbLine
 10
209071.026
 20
439100.548
 30
0.0
 11
209071.5975
 21
439094.8925
 31
0.0
  0
LINE
  5
1C68
330
1CE1
100
AcDbEntity
  8
S07
 62
     7
100
AcDbLine
 10
209071.5975
 20
439094.8925
 30
0.0
 11
209076.6815
 21
439101.1195
 31
0.0
  0
LINE
  5
1C69
330
1CE1
100
AcDbEntity
  8
S07
 62
     7
100
AcDbLine
 10
209071.5975
 20
439094.8925
 30
0.0
 11
209077.253
 21
439095.464
 31
0.0
  0
LINE
  5
1C6A
330
1CE1
100
AcDbEntity
  8
S07
 62
     7
100
AcDbLine
 10
209077.253
 20
439095.464
 30
0.0
 11
209076.6815
 21
439101.1195
 31
0.0
  0
LINE
  5
1C6B
330
1CE1
100
AcDbEntity
  8
B01
 62
     7
100
AcDbLine
 10
209502.52
 20
439000.0
 30
0.0
 11
209502.761
 21
439005.717
 31
0.0
1001
ToXml
1000
boogpunt1=
1000
boogpunt2=
1000
boogpunt3=
1000
ngdw_id=0
  0
LINE
  5
1C6C
330
1CE1
100
AcDbEntity
  8
B01
 62
     7
100
AcDbLine
 10
209502.761
 20
439005.717
 30
0.0
 11
209512.199
 21
439005.32
 31
0.0
1001
ToXml
1000
boogpunt1=
1000
boogpunt2=
1000
boogpunt3=
1000
ngdw_id=0
  0
LINE
  5
1C6D
330
1CE1
100
AcDbEntity
  8
B01
 62
     7
100
AcDbLine
 10
209512.199
 20
439005.32
 30
0.0
 11
209511.975
 21
439000.0
 31
0.0
1001
ToXml
1000
boogpunt1=
1000
boogpunt2=
1000
boogpunt3=
1000
ngdw_id=0
  0
LINE
  5
1C6E
330
1CE1
100
AcDbEntity
  8
B01
 62
     7
100
AcDbLine
 10
209621.252
 20
439006.365
 30
0.0
 11
209632.217
 21
439003.603
 31
0.0
1001
ToXml
1000
boogpunt1=
1000
boogpunt2=
1000
boogpunt3=
1000
ngdw_id=0
  0
LINE
  5
1C6F
330
1CE1
100
AcDbEntity
  8
B01
 62
     7
100
AcDbLine
 10
209632.217
 20
439003.603
 30
0.0
 11
209631.365
 21
439000.0
 31
0.0
1001
ToXml
1000
boogpunt1=
1000
boogpunt2=
1000
boogpunt3=
1000
ngdw_id=0
  0
LINE
  5
1C70
330
1CE1
100
AcDbEntity
  8
B01
 62
     7
100
AcDbLine
 10
209612.182
 20
439000.0
 30
0.0
 11
209613.942
 21
439007.449
 31
0.0
1001
ToXml
1000
boogpunt1=
1000
boogpunt2=
1000
boogpunt3=
1000
ngdw_id=0
  0
LINE
  5
1C71
330
1CE1
100
AcDbEntity
  8
B01
 62
     7
100
AcDbLine
 10
209613.942
 20
439007.449
 30
0.0
 11
209621.037
 21
439005.597
 31
0.0
1001
ToXml
1000
boogpunt1=
1000
boogpunt2=
1000
boogpunt3=
1000
ngdw_id=0
  0
LINE
  5
1C72
330
1CE1
100
AcDbEntity
  8
B01
 62
     7
100
AcDbLine
 10
209621.037
 20
439005.597
 30
0.0
 11
209621.252
 21
439006.365
 31
0.0
1001
ToXml
1000
boogpunt1=
1000
boogpunt2=
1000
boogpunt3=
1000
ngdw_id=0
  0
LINE
  5
1C73
330
1CE1
100
AcDbEntity
  8
B01
 62
     7
100
AcDbLine
 10
209448.046
 20
439028.49
 30
0.0
 11
209458.301
 21
439027.573
 31
0.0
1001
ToXml
1000
boogpunt1=
1000
boogpunt2=
1000
boogpunt3=
1000
ngdw_id=0
  0
LINE
  5
1C74
330
1CE1
100
AcDbEntity
  8
B01
 62
     7
100
AcDbLine
 10
209458.301
 20
439027.573
 30
0.0
 11
209456.741
 21
439013.715
 31
0.0
1001
ToXml
1000
boogpunt1=
1000
boogpunt2=
1000
boogpunt3=
1000
ngdw_id=0
  0
LINE
  5
1C75
330
1CE1
100
AcDbEntity
  8
B01
 62
     7
100
AcDbLine
 10
209456.741
 20
439013.715
 30
0.0
 11
209446.803
 21
439014.604
 31
0.0
1001
ToXml
1000
boogpunt1=
1000
boogpunt2=
1000
boogpunt3=
1000
ngdw_id=0
  0
LINE
  5
1C76
330
1CE1
100
AcDbEntity
  8
B01
 62
     7
100
AcDbLine
 10
209035.191
 20
439071.145
 30
0.0
 11
209034.898
 21
439071.208
 31
0.0
1001
ToXml
1000
boogpunt1=
1000
boogpunt2=
1000
boogpunt3=
1000
ngdw_id=0
  0
LINE
  5
1C77
330
1CE1
100
AcDbEntity
  8
B01
 62
     7
100
AcDbLine
 10
209034.898
 20
439071.208
 30
0.0
 11
209036.529
 21
439078.797
 31
0.0
1001
ToXml
1000
boogpunt1=
1000
boogpunt2=
1000
boogpunt3=
1000
ngdw_id=0
  0
LINE
  5
1C78
330
1CE1
100
AcDbEntity
  8
B01
 62
     7
100
AcDbLine
 10
209036.529
 20
439078.797
 30
0.0
 11
209048.762
 21
439076.17
 31
0.0
1001
ToXml
1000
boogpunt1=
1000
boogpunt2=
1000
boogpunt3=
1000
ngdw_id=0
  0
LINE
  5
1C79
330
1CE1
100
AcDbEntity
  8
B01
 62
     7
100
AcDbLine
 10
209048.451
 20
439070.859
 30
0.0
 11
209047.925
 21
439068.41
 31
0.0
1001
ToXml
1000
boogpunt1=
1000
boogpunt2=
1000
boogpunt3=
1000
ngdw_id=0
  0
LINE
  5
1C7A
330
1CE1
100
AcDbEntity
  8
B01
 62
     7
100
AcDbLine
 10
209047.925
 20
439068.41
 30
0.0
 11
209039.986
 21
439070.115
 31
0.0
1001
ToXml
1000
boogpunt1=
1000
boogpunt2=
1000
boogpunt3=
1000
ngdw_id=0
  0
LINE
  5
1C7B
330
1CE1
100
AcDbEntity
  8
B11
 62
     7
100
AcDbLine
 10
209048.762
 20
439076.17
 30
0.0
 11
209049.13
 21
439077.884
 31
0.0
1001
ToXml
1000
boogpunt1=
1000
boogpunt2=
1000
boogpunt3=
1000
ngdw_id=0
  0
LINE
  5
1C7C
330
1CE1
100
AcDbEntity
  8
B11
 62
     7
100
AcDbLine
 10
209049.13
 20
439077.884
 30
0.0
 11
209054.062
 21
439076.824
 31
0.0
1001
ToXml
1000
boogpunt1=
1000
boogpunt2=
1000
boogpunt3=
1000
ngdw_id=0
  0
LINE
  5
1C7D
330
1CE1
100
AcDbEntity
  8
B11
 62
     7
100
AcDbLine
 10
209054.062
 20
439076.824
 30
0.0
 11
209052.589
 21
439069.97
 31
0.0
1001
ToXml
1000
boogpunt1=
1000
boogpunt2=
1000
boogpunt3=
1000
ngdw_id=0
  0
LINE
  5
1C7E
330
1CE1
100
AcDbEntity
  8
B11
 62
     7
100
AcDbLine
 10
209052.589
 20
439069.97
 30
0.0
 11
209048.451
 21
439070.859
 31
0.0
1001
ToXml
1000
boogpunt1=
1000
boogpunt2=
1000
boogpunt3=
1000
ngdw_id=0
  0
LINE
  5
1C7F
330
1CE1
100
AcDbEntity
  8
B11
 62
     7
100
AcDbLine
 10
209446.803
 20
439014.604
 30
0.0
 11
209439.574
 21
439015.38
 31
0.0
1001
ToXml
1000
boogpunt1=
1000
boogpunt2=
1000
boogpunt3=
1000
ngdw_id=0
  0
LINE
  5
1C80
330
1CE1
100
AcDbEntity
  8
B11
 62
     7
100
AcDbLine
 10
209439.574
 20
439015.38
 30
0.0
 11
209440.354
 21
439023.211
 31
0.0
1001
ToXml
1000
boogpunt1=
1000
boogpunt2=
1000
boogpunt3=
1000
ngdw_id=0
  0
LINE
  5
1C81
330
1CE1
100
AcDbEntity
  8
B11
 62
     7
100
AcDbLine
 10
209445.416
 20
439028.759
 30
0.0
 11
209448.046
 21
439028.49
 31
0.0
1001
ToXml
1000
boogpunt1=
1000
boogpunt2=
1000
boogpunt3=
1000
ngdw_id=0
  0
LINE
  5
1C82
330
1CE1
100
AcDbEntity
  8
B11
 62
     7
100
AcDbLine
 10
209440.354
 20
439023.211
 30
0.0
 11
209447.731
 21
439022.571
 31
0.0
1001
ToXml
1000
boogpunt1=
1000
boogpunt2=
1000
boogpunt3=
1000
ngdw_id=0
  0
LINE
  5
1C83
330
1CE1
100
AcDbEntity
  8
B11
 62
     7
100
AcDbLine
 10
209447.731
 20
439022.571
 30
0.0
 11
209447.836
 21
439023.863
 31
0.0
1001
ToXml
1000
boogpunt1=
1000
boogpunt2=
1000
boogpunt3=
1000
ngdw_id=0
  0
LINE
  5
1C84
330
1CE1
100
AcDbEntity
  8
B11
 62
     7
100
AcDbLine
 10
209447.836
 20
439023.863
 30
0.0
 11
209444.931
 21
439024.071
 31
0.0
1001
ToXml
1000
boogpunt1=
1000
boogpunt2=
1000
boogpunt3=
1000
ngdw_id=0
  0
LINE
  5
1C85
330
1CE1
100
AcDbEntity
  8
B11
 62
     7
100
AcDbLine
 10
209444.931
 20
439024.071
 30
0.0
 11
209445.416
 21
439028.759
 31
0.0
1001
ToXml
1000
boogpunt1=
1000
boogpunt2=
1000
boogpunt3=
1000
ngdw_id=0
  0
LINE
  5
1C86
330
1CE1
100
AcDbEntity
  8
B01
 62
     7
100
AcDbLine
 10
209035.191
 20
439071.145
 30
0.0
 11
209034.7
 21
439068.857
 31
0.0
1001
ToXml
1000
boogpunt1=
1000
boogpunt2=
1000
boogpunt3=
1000
ngdw_id=0
  0
LINE
  5
1C87
330
1CE1
100
AcDbEntity
  8
B01
 62
     7
100
AcDbLine
 10
209034.7
 20
439068.857
 30
0.0
 11
209035.044
 21
439067.842
 31
0.0
1001
ToXml
1000
boogpunt1=
1000
boogpunt2=
1000
boogpunt3=
1000
ngdw_id=0
  0
LINE
  5
1C88
330
1CE1
100
AcDbEntity
  8
B01
 62
     7
100
AcDbLine
 10
209035.044
 20
439067.842
 30
0.0
 11
209035.855
 21
439067.095
 31
0.0
1001
ToXml
1000
boogpunt1=
1000
boogpunt2=
1000
boogpunt3=
1000
ngdw_id=0
  0
LINE
  5
1C89
330
1CE1
100
AcDbEntity
  8
B01
 62
     7
100
AcDbLine
 10
209035.855
 20
439067.095
 30
0.0
 11
209037.718
 21
439066.695
 31
0.0
1001
ToXml
1000
boogpunt1=
1000
boogpunt2=
1000
boogpunt3=
1000
ngdw_id=0
  0
LINE
  5
1C8A
330
1CE1
100
AcDbEntity
  8
B01
 62
     7
100
AcDbLine
 10
209037.718
 20
439066.695
 30
0.0
 11
209038.764
 21
439067.043
 31
0.0
1001
ToXml
1000
boogpunt1=
1000
boogpunt2=
1000
boogpunt3=
1000
ngdw_id=0
  0
LINE
  5
1C8B
330
1CE1
100
AcDbEntity
  8
B01
 62
     7
100
AcDbLine
 10
209038.764
 20
439067.043
 30
0.0
 11
209039.495
 21
439067.827
 31
0.0
1001
ToXml
1000
boogpunt1=
1000
boogpunt2=
1000
boogpunt3=
1000
ngdw_id=0
  0
LINE
  5
1C8C
330
1CE1
100
AcDbEntity
  8
B01
 62
     7
100
AcDbLine
 10
209039.495
 20
439067.827
 30
0.0
 11
209039.986
 21
439070.115
 31
0.0
1001
ToXml
1000
boogpunt1=
1000
boogpunt2=
1000
boogpunt3=
1000
ngdw_id=0
  0
LINE
  5
1C8D
330
1CE1
100
AcDbEntity
  8
G01
 62
     7
100
AcDbLine
 10
209467.48
 20
439000.0
 30
0.0
 11
209471.813
 21
439034.706
 31
0.0
1001
ToXml
1000
boogpunt1=
1000
boogpunt2=
1000
boogpunt3=
1000
ngdw_id=0
  0
LINE
  5
1C8E
330
1CE1
100
AcDbEntity
  8
G01
 62
     7
100
AcDbLine
 10
209095.411
 20
439060.162
 30
0.0
 11
209109.816
 21
439095.977
 31
0.0
1001
ToXml
1000
boogpunt1=
1000
boogpunt2=
1000
boogpunt3=
1000
ngdw_id=0
  0
LINE
  5
1C8F
330
1CE1
100
AcDbEntity
  8
G01
 62
     7
100
AcDbLine
 10
209095.411
 20
439060.162
 30
0.0
 11
209319.93
 21
439088.007
 31
0.0
1001
ToXml
1000
boogpunt1=
1000
boogpunt2=
1000
boogpunt3=
1000
ngdw_id=0
  0
LINE
  5
1C90
330
1CE1
100
AcDbEntity
  8
G01
 62
     7
100
AcDbLine
 10
209477.461
 20
439079.952
 30
0.0
 11
209537.339
 21
439120.092
 31
0.0
1001
ToXml
1000
boogpunt1=
1000
boogpunt2=
1000
boogpunt3=
1000
ngdw_id=0
  0
LINE
  5
1C91
330
1CE1
100
AcDbEntity
  8
G01
 62
     7
100
AcDbLine
 10
209071.213
 20
439000.0
 30
0.0
 11
209095.411
 21
439060.162
 31
0.0
1001
ToXml
1000
boogpunt1=
1000
boogpunt2=
1000
boogpunt3=
1000
ngdw_id=0
  0
LINE
  5
1C92
330
1CE1
100
AcDbEntity
  8
G01
 62
     7
100
AcDbLine
 10
209252.343
 20
439000.0
 30
0.0
 11
209315.898
 21
439044.612
 31
0.0
1001
ToXml
1000
boogpunt1=
1000
boogpunt2=
1000
boogpunt3=
1000
ngdw_id=0
  0
LINE
  5
1C93
330
1CE1
100
AcDbEntity
  8
G01
 62
     7
100
AcDbLine
 10
209315.898
 20
439044.612
 30
0.0
 11
209347.872
 21
439065.812
 31
0.0
1001
ToXml
1000
boogpunt1=
1000
boogpunt2=
1000
boogpunt3=
1000
ngdw_id=0
  0
LINE
  5
1C94
330
1CE1
100
AcDbEntity
  8
G01
 62
     7
100
AcDbLine
 10
209550.356
 20
439000.0
 30
0.0
 11
209562.851
 21
439071.659
 31
0.0
1001
ToXml
1000
boogpunt1=
1000
boogpunt2=
1000
boogpunt3=
1000
ngdw_id=0
  0
LINE
  5
1C95
330
1CE1
100
AcDbEntity
  8
G01
 62
     7
100
AcDbLine
 10
209562.851
 20
439071.659
 30
0.0
 11
209570.729
 21
439117.04
 31
0.0
1001
ToXml
1000
boogpunt1=
1000
boogpunt2=
1000
boogpunt3=
1000
ngdw_id=0
  0
LINE
  5
1C96
330
1CE1
100
AcDbEntity
  8
G01
 62
     7
100
AcDbLine
 10
209395.478
 20
439097.377
 30
0.0
 11
209400.792
 21
439100.9
 31
0.0
1001
ToXml
1000
boogpunt1=
1000
boogpunt2=
1000
boogpunt3=
1000
ngdw_id=0
  0
LINE
  5
1C97
330
1CE1
100
AcDbEntity
  8
G01
 62
     7
100
AcDbLine
 10
209592.363
 20
439000.0
 30
0.0
 11
209595.672
 21
439015.549
 31
0.0
1001
ToXml
1000
boogpunt1=
1000
boogpunt2=
1000
boogpunt3=
1000
ngdw_id=0
  0
LINE
  5
1C98
330
1CE1
100
AcDbEntity
  8
G01
 62
     7
100
AcDbLine
 10
209595.672
 20
439015.549
 30
0.0
 11
209636.166
 21
439006.296
 31
0.0
1001
ToXml
1000
boogpunt1=
1000
boogpunt2=
1000
boogpunt3=
1000
ngdw_id=0
  0
LINE
  5
1C99
330
1CE1
100
AcDbEntity
  8
G01
 62
     7
100
AcDbLine
 10
209570.729
 20
439117.04
 30
0.0
 11
209657.467
 21
439127.034
 31
0.0
1001
ToXml
1000
boogpunt1=
1000
boogpunt2=
1000
boogpunt3=
1000
ngdw_id=0
  0
LINE
  5
1C9A
330
1CE1
100
AcDbEntity
  8
G01
 62
     7
100
AcDbLine
 10
209636.166
 20
439006.296
 30
0.0
 11
209649.928
 21
439083.835
 31
0.0
1001
ToXml
1000
boogpunt1=
1000
boogpunt2=
1000
boogpunt3=
1000
ngdw_id=0
  0
LINE
  5
1C9B
330
1CE1
100
AcDbEntity
  8
G01
 62
     7
100
AcDbLine
 10
209649.928
 20
439083.835
 30
0.0
 11
209657.467
 21
439127.034
 31
0.0
1001
ToXml
1000
boogpunt1=
1000
boogpunt2=
1000
boogpunt3=
1000
ngdw_id=0
  0
LINE
  5
1C9C
330
1CE1
100
AcDbEntity
  8
G01
 62
     7
100
AcDbLine
 10
209475.376
 20
439078.62
 30
0.0
 11
209477.461
 21
439079.952
 31
0.0
1001
ToXml
1000
boogpunt1=
1000
boogpunt2=
1000
boogpunt3=
1000
ngdw_id=0
  0
LINE
  5
1C9D
330
1CE1
100
AcDbEntity
  8
G01
 62
     7
100
AcDbLine
 10
209475.376
 20
439078.62
 30
0.0
 11
209469.812
 21
439034.933
 31
0.0
1001
ToXml
1000
boogpunt1=
1000
boogpunt2=
1000
boogpunt3=
1000
ngdw_id=0
  0
LINE
  5
1C9E
330
1CE1
100
AcDbEntity
  8
G01
 62
     7
100
AcDbLine
 10
209471.813
 20
439034.706
 30
0.0
 11
209469.812
 21
439034.933
 31
0.0
1001
ToXml
1000
boogpunt1=
1000
boogpunt2=
1000
boogpunt3=
1000
ngdw_id=0
  0
LINE
  5
1C9F
330
1CE1
100
AcDbEntity
  8
G01
 62
     7
100
AcDbLine
 10
209471.813
 20
439034.706
 30
0.0
 11
209477.461
 21
439079.952
 31
0.0
1001
ToXml
1000
boogpunt1=
1000
boogpunt2=
1000
boogpunt3=
1000
ngdw_id=0
  0
LINE
  5
1CA0
330
1CE1
100
AcDbEntity
  8
G01
 62
     7
100
AcDbLine
 10
209319.93
 20
439088.007
 30
0.0
 11
209351.675
 21
439091.944
 31
0.0
1001
ToXml
1000
boogpunt1=
1000
boogpunt2=
1000
boogpunt3=
1000
ngdw_id=0
  0
LINE
  5
1CA1
330
1CE1
100
AcDbEntity
  8
G01
 62
     7
100
AcDbLine
 10
209342.154
 20
439073.681
 30
0.0
 11
209347.872
 21
439065.812
 31
0.0
1001
ToXml
1000
boogpunt1=
1000
boogpunt2=
1000
boogpunt3=
1000
ngdw_id=0
  0
LINE
  5
1CA2
330
1CE1
100
AcDbEntity
  8
G01
 62
     7
100
AcDbLine
 10
209344.083
 20
439077.381
 30
0.0
 11
209342.154
 21
439073.681
 31
0.0
1001
ToXml
1000
boogpunt1=
1000
boogpunt2=
1000
boogpunt3=
1000
ngdw_id=0
  0
LINE
  5
1CA3
330
1CE1
100
AcDbEntity
  8
G01
 62
     7
100
AcDbLine
 10
209351.675
 20
439091.944
 30
0.0
 11
209344.083
 21
439077.381
 31
0.0
1001
ToXml
1000
boogpunt1=
1000
boogpunt2=
1000
boogpunt3=
1000
ngdw_id=0
  0
LINE
  5
1CA4
330
1CE1
100
AcDbEntity
  8
G01
 62
     7
100
AcDbLine
 10
209347.872
 20
439065.812
 30
0.0
 11
209395.478
 21
439097.377
 31
0.0
1001
ToXml
1000
boogpunt1=
1000
boogpunt2=
1000
boogpunt3=
1000
ngdw_id=0
  0
LINE
  5
1CA5
330
1CE1
100
AcDbEntity
  8
G01
 62
     7
100
AcDbLine
 10
209351.675
 20
439091.944
 30
0.0
 11
209395.478
 21
439097.377
 31
0.0
1001
ToXml
1000
boogpunt1=
1000
boogpunt2=
1000
boogpunt3=
1000
ngdw_id=0
  0
LINE
  5
1CA6
330
1CE1
100
AcDbEntity
  8
G01
 62
     7
100
AcDbLine
 10
209469.812
 20
439034.933
 30
0.0
 11
209465.86
 21
439035.382
 31
0.0
1001
ToXml
1000
boogpunt1=
1000
boogpunt2=
1000
boogpunt3=
1000
ngdw_id=0
  0
LINE
  5
1CA7
330
1CE1
100
AcDbEntity
  8
G01
 62
     7
100
AcDbLine
 10
209465.86
 20
439035.382
 30
0.0
 11
209461.57
 21
439000.0
 31
0.0
1001
ToXml
1000
boogpunt1=
1000
boogpunt2=
1000
boogpunt3=
1000
ngdw_id=0
  0
LINE
  5
1CA8
330
1CE1
100
AcDbEntity
  8
G01
 62
     7
100
AcDbLine
 10
209354.735
 20
439000.0
 30
0.0
 11
209407.608
 21
439035.326
 31
0.0
1001
ToXml
1000
boogpunt1=
1000
boogpunt2=
1000
boogpunt3=
1000
ngdw_id=0
  0
LINE
  5
1CA9
330
1CE1
100
AcDbEntity
  8
G01
 62
     7
100
AcDbLine
 10
209407.608
 20
439035.326
 30
0.0
 11
209475.376
 21
439078.62
 31
0.0
1001
ToXml
1000
boogpunt1=
1000
boogpunt2=
1000
boogpunt3=
1000
ngdw_id=0
  0
LINE
  5
1CAA
330
1CE1
100
AcDbEntity
  8
G01
 62
     7
100
AcDbLine
 10
209636.166
 20
439006.296
 30
0.0
 11
209650.354
 21
439003.054
 31
0.0
1001
ToXml
1000
boogpunt1=
1000
boogpunt2=
1000
boogpunt3=
1000
ngdw_id=0
  0
LINE
  5
1CAB
330
1CE1
100
AcDbEntity
  8
G01
 62
     7
100
AcDbLine
 10
209650.354
 20
439003.054
 30
0.0
 11
209649.622
 21
439000.0
 31
0.0
1001
ToXml
1000
boogpunt1=
1000
boogpunt2=
1000
boogpunt3=
1000
ngdw_id=0
  0
LINE
  5
1CAC
330
1CE1
100
AcDbEntity
  8
G01
 62
     7
100
AcDbLine
 10
208962.216
 20
439043.643
 30
0.0
 11
209095.411
 21
439060.162
 31
0.0
1001
ToXml
1000
boogpunt1=
1000
boogpunt2=
1000
boogpunt3=
1000
ngdw_id=0
  0
LINE
  5
1CAD
330
1CE1
100
AcDbEntity
  8
G01
 62
     7
100
AcDbLine
 10
208944.83
 20
439000.0
 30
0.0
 11
208957.198
 21
439031.048
 31
0.0
1001
ToXml
1000
boogpunt1=
1000
boogpunt2=
1000
boogpunt3=
1000
ngdw_id=0
  0
LINE
  5
1CAE
330
1CE1
100
AcDbEntity
  8
G01
 62
     7
100
AcDbLine
 10
208957.198
 20
439031.048
 30
0.0
 11
208962.216
 21
439043.643
 31
0.0
1001
ToXml
1000
boogpunt1=
1000
boogpunt2=
1000
boogpunt3=
1000
ngdw_id=0
  0
LINE
  5
1CAF
330
1CE1
100
AcDbEntity
  8
G01
 62
     7
100
AcDbLine
 10
209041.546
 20
439007.209
 30
0.0
 11
208957.198
 21
439031.048
 31
0.0
1001
ToXml
1000
boogpunt1=
1000
boogpunt2=
1000
boogpunt3=
1000
ngdw_id=0
  0
LINE
  5
1CB0
330
1CE1
100
AcDbEntity
  8
G01
 62
     7
100
AcDbLine
 10
209041.546
 20
439007.209
 30
0.0
 11
209039.807
 21
439000.0
 31
0.0
1001
ToXml
1000
boogpunt1=
1000
boogpunt2=
1000
boogpunt3=
1000
ngdw_id=0
  0
ENDSEC
  0
SECTION
  2
OBJECTS
  0
DICTIONARY
  5
1CE6
330
0
100
AcDbDictionary
281
     1
  3
ACAD_COLOR
350
1D22
  3
ACAD_GROUP
350
1D0F
  3
ACAD_LAYOUT
350
1CF3
  3
ACAD_MATERIAL
350
1CE8
  3
ACAD_MLEADERSTYLE
350
1D25
  3
ACAD_MLINESTYLE
350
1D10
  3
ACAD_PLOTSETTINGS
350
1D11
  3
ACAD_PLOTSTYLENAME
350
1CE5
  3
ACAD_SCALELIST
350
1D23
  3
ACAD_TABLESTYLE
350
1D24
  3
ACAD_VISUALSTYLE
350
1D09
  3
AcadDim
350
1DC6
  3
ACDB_RECOMPOSE_DATA
350
1DC9
  3
AcDbVariableDictionary
350
1D4F
  0
DICTIONARY
  5
1CFC
330
1CFB
100
AcDbDictionary
280
     1
281
     1
  3
ACAD_LAYERSTATES
360
1CFD
  0
DICTIONARY
  5
1D22
102
{ACAD_REACTORS
330
1CE6
102
}
330
1CE6
100
AcDbDictionary
281
     1
  0
DICTIONARY
  5
1D0F
102
{ACAD_REACTORS
330
1CE6
102
}
330
1CE6
100
AcDbDictionary
281
     1
  0
DICTIONARY
  5
1CF3
102
{ACAD_REACTORS
330
1CE6
102
}
330
1CE6
100
AcDbDictionary
281
     1
  3
Layout1
350
1CF7
  3
Model
350
1CF2
  0
DICTIONARY
  5
1CE8
102
{ACAD_REACTORS
330
1CE6
102
}
330
1CE6
100
AcDbDictionary
281
     1
  3
ByBlock
350
1D1A
  3
ByLayer
350
1D12
  3
Global
350
1CE7
  0
DICTIONARY
  5
1D25
102
{ACAD_REACTORS
330
1CE6
102
}
330
1CE6
100
AcDbDictionary
281
     1
  3
Standard
350
1D72
  0
DICTIONARY
  5
1D10
102
{ACAD_REACTORS
330
1CE6
102
}
330
1CE6
100
AcDbDictionary
281
     1
  3
Standard
350
1D26
  0
DICTIONARY
  5
1D11
102
{ACAD_REACTORS
330
1CE6
102
}
330
1CE6
100
AcDbDictionary
281
     1
  0
ACDBDICTIONARYWDFLT
  5
1CE5
102
{ACAD_REACTORS
330
1CE6
102
}
330
1CE6
100
AcDbDictionary
281
     1
  3
Normal
350
1CE4
100
AcDbDictionaryWithDefault
340
1CE4
  0
DICTIONARY
  5
1D23
102
{ACAD_REACTORS
330
1CE6
102
}
330
1CE6
100
AcDbDictionary
281
     1
  3
A0
350
1D2A
  3
A1
350
1D2B
  3
A2
350
1D2C
  3
A3
350
1D2D
  3
A4
350
1D2E
  3
A5
350
1D2F
  3
A6
350
1D30
  3
A7
350
1D31
  3
A8
350
1D32
  3
A9
350
1D33
  3
B0
350
1D34
  3
B1
350
1D35
  3
B2
350
1D36
  3
B3
350
1D37
  3
B4
350
1D38
  3
B5
350
1D39
  3
B6
350
1D3A
  3
B7
350
1D3B
  3
B8
350
1D3C
  3
B9
350
1D3D
  3
C0
350
1D3E
  3
C1
350
1D3F
  3
C2
350
1D40
  3
C3
350
1D41
  3
C4
350
1D42
  3
C5
350
1D43
  3
C6
350
1D44
  3
C7
350
1D45
  3
C8
350
1D46
  3
C9
350
1D47
  3
D0
350
1D48
  3
D1
350
1D49
  3
D2
350
1D4A
  0
DICTIONARY
  5
1D24
102
{ACAD_REACTORS
330
1CE6
102
}
330
1CE6
100
AcDbDictionary
281
     1
  3
Standard
350
1D27
  0
DICTIONARY
  5
1D09
102
{ACAD_REACTORS
330
1CE6
102
}
330
1CE6
100
AcDbDictionary
281
     1
  3
2dWireframe
350
1D08
  3
3D Hidden
350
1D67
  3
3dWireframe
350
1D29
  3
Basic
350
1D66
  3
Brighten
350
1D6A
  3
ColorChange
350
1D6E
  3
Conceptual
350
1D68
  3
Dim
350
1D69
  3
EdgeColorOff
350
1D71
  3
Facepattern
350
1D6D
  3
Flat
350
1D62
  3
FlatWithEdges
350
1D63
  3
Gouraud
350
1D64
  3
GouraudWithEdges
350
1D65
  3
JitterOff
350
1D6F
  3
Linepattern
350
1D6C
  3
OverhangOff
350
1D70
  3
Realistic
350
1D28
  3
Thicken
350
1D6B
  0
XRECORD
  5
1DC6
102
{ACAD_REACTORS
330
1CE6
102
}
330
1CE6
100
AcDbXrecord
280
     1
 90
   990106
  3
 
 60
     0
 61
     0
 62
     2
 63
     2
 64
     0
 65
     0
 66
     0
 67
     3
 68
     1
 69
     0
 70
     0
 71
     0
 72
     0
 40
0.0
170
     0
  0
XRECORD
  5
1DC9
102
{ACAD_REACTORS
330
1CE6
102
}
330
1CE6
100
AcDbXrecord
280
     1
 90
        1
330
1D27
  0
DICTIONARY
  5
1D4F
102
{ACAD_REACTORS
330
1CE6
102
}
330
1CE6
100
AcDbDictionary
281
     1
  3
CANNOSCALE
350
1D53
  3
CMLEADERSTYLE
350
1D51
  3
CTABLESTYLE
350
1D50
  3
LAYEREVAL
350
1D55
  3
LAYERNOTIFY
350
1D56
  3
LIGHTINGUNITS
350
1D54
  3
MSLTSCALE
350
1D52
  0
DICTIONARY
  5
1CFD
102
{ACAD_REACTORS
330
1CFC
102
}
330
1CFC
100
AcDbDictionary
281
     1
  0
LAYOUT
  5
1CF7
102
{ACAD_XDICTIONARY
360
1CF8
102
}
102
{ACAD_REACTORS
330
1CF3
102
}
330
1CF3
100
AcDbPlotSettings
  1

  2
none_device
  4
Letter_(8.50_x_11.00_Inches)
  6

 40
6.35
 41
6.35
 42
6.350006
 43
6.350006
 44
215.899994
 45
279.399994
 46
0.0
 47
0.0
 48
0.0
 49
0.0
140
0.0
141
0.0
142
1.0
143
1.0
 70
   688
 72
     0
 73
     1
 74
     5
  7

 75
    16
147
1.0
 76
     0
 77
     2
 78
   300
148
0.0
149
0.0
100
AcDbLayout
  1
Layout1
 70
     1
 71
     1
 10
-0.25
 20
-0.25
 11
10.75
 21
8.25
 12
0.0
 22
0.0
 32
0.0
 14
1.049744
 24
0.799667
 34
-0.001526
 15
9.450623
 25
7.200577
 35
0.0
146
0.0
 13
0.0
 23
0.0
 33
0.0
 16
1.0
 26
0.0
 36
0.0
 17
0.0
 27
1.0
 37
0.0
 76
     0
330
1CF4
1001
ACAD_PSEXT
1000
None
1000
None
1000
Not applicable
1000
The layout will not be plotted unless a new plotter configuration name is selected.
1070
     0
  0
LAYOUT
  5
1CF2
102
{ACAD_REACTORS
330
1CF3
102
}
330
1CF3
100
AcDbPlotSettings
  1

  2
none_device
  4
ANSI_A_(8.50_x_11.00_Inches)
  6

 40
6.35
 41
19.049999
 42
6.350006
 43
19.049988
 44
215.899994
 45
279.399994
 46
0.0
 47
0.0
 48
0.0
 49
0.0
140
0.0
141
0.0
142
1.0
143
2.584895
 70
 11952
 72
     0
 73
     1
 74
     0
  7

 75
     0
147
0.386863
 76
     0
 77
     2
 78
   300
148
0.0
149
0.0
100
AcDbLayout
  1
Model
 70
     1
 71
     0
 10
0.0
 20
0.0
 11
12.0
 21
9.0
 12
0.0
 22
0.0
 32
0.0
 14
0.0
 24
0.0
 34
0.0
 15
0.0
 25
0.0
 35
0.0
146
0.0
 13
0.0
 23
0.0
 33
0.0
 16
1.0
 26
0.0
 36
0.0
 17
0.0
 27
1.0
 37
0.0
 76
     0
330
1CE1
  0
MATERIAL
  5
1D1A
102
{ACAD_XDICTIONARY
360
1D1B
102
}
102
{ACAD_REACTORS
330
1CE8
102
}
330
1CE8
100
AcDbMaterial
  1
ByBlock
 72
     0
 43
0.020833
 43
0.0
 43
0.0
 43
0.0
 43
0.0
 43
0.020833
 43
0.0
 43
0.0
 43
0.0
 43
0.0
 43
1.0
 43
0.0
 43
0.0
 43
0.0
 43
0.0
 43
1.0
 77
     0
 47
0.020833
 47
0.0
 47
0.0
 47
0.0
 47
0.0
 47
0.020833
 47
0.0
 47
0.0
 47
0.0
 47
0.0
 47
1.0
 47
0.0
 47
0.0
 47
0.0
 47
0.0
 47
1.0
171
     0
 49
0.020833
 49
0.0
 49
0.0
 49
0.0
 49
0.0
 49
0.020833
 49
0.0
 49
0.0
 49
0.0
 49
0.0
 49
1.0
 49
0.0
 49
0.0
 49
0.0
 49
0.0
 49
1.0
175
     0
142
0.020833
142
0.0
142
0.0
142
0.0
142
0.0
142
0.020833
142
0.0
142
0.0
142
0.0
142
0.0
142
1.0
142
0.0
142
0.0
142
0.0
142
0.0
142
1.0
179
     0
144
0.020833
144
0.0
144
0.0
144
0.0
144
0.0
144
0.020833
144
0.0
144
0.0
144
0.0
144
0.0
144
1.0
144
0.0
144
0.0
144
0.0
144
0.0
144
1.0
147
0.020833
147
0.0
147
0.0
147
0.0
147
0.0
147
0.020833
147
0.0
147
0.0
147
0.0
147
0.0
147
1.0
147
0.0
147
0.0
147
0.0
147
0.0
147
1.0
  0
MATERIAL
  5
1D12
102
{ACAD_XDICTIONARY
360
1D13
102
}
102
{ACAD_REACTORS
330
1CE8
102
}
330
1CE8
100
AcDbMaterial
  1
ByLayer
 72
     0
 43
0.020833
 43
0.0
 43
0.0
 43
0.0
 43
0.0
 43
0.020833
 43
0.0
 43
0.0
 43
0.0
 43
0.0
 43
1.0
 43
0.0
 43
0.0
 43
0.0
 43
0.0
 43
1.0
 77
     0
 47
0.020833
 47
0.0
 47
0.0
 47
0.0
 47
0.0
 47
0.020833
 47
0.0
 47
0.0
 47
0.0
 47
0.0
 47
1.0
 47
0.0
 47
0.0
 47
0.0
 47
0.0
 47
1.0
171
     0
 49
0.020833
 49
0.0
 49
0.0
 49
0.0
 49
0.0
 49
0.020833
 49
0.0
 49
0.0
 49
0.0
 49
0.0
 49
1.0
 49
0.0
 49
0.0
 49
0.0
 49
0.0
 49
1.0
175
     0
142
0.020833
142
0.0
142
0.0
142
0.0
142
0.0
142
0.020833
142
0.0
142
0.0
142
0.0
142
0.0
142
1.0
142
0.0
142
0.0
142
0.0
142
0.0
142
1.0
179
     0
144
0.020833
144
0.0
144
0.0
144
0.0
144
0.0
144
0.020833
144
0.0
144
0.0
144
0.0
144
0.0
144
1.0
144
0.0
144
0.0
144
0.0
144
0.0
144
1.0
147
0.020833
147
0.0
147
0.0
147
0.0
147
0.0
147
0.020833
147
0.0
147
0.0
147
0.0
147
0.0
147
1.0
147
0.0
147
0.0
147
0.0
147
0.0
147
1.0
  0
MATERIAL
  5
1CE7
102
{ACAD_XDICTIONARY
360
1CE9
102
}
102
{ACAD_REACTORS
330
1CE8
102
}
330
1CE8
100
AcDbMaterial
  1
Global
 72
     0
 43
0.020833
 43
0.0
 43
0.0
 43
0.0
 43
0.0
 43
0.020833
 43
0.0
 43
0.0
 43
0.0
 43
0.0
 43
1.0
 43
0.0
 43
0.0
 43
0.0
 43
0.0
 43
1.0
 77
     0
 47
0.020833
 47
0.0
 47
0.0
 47
0.0
 47
0.0
 47
0.020833
 47
0.0
 47
0.0
 47
0.0
 47
0.0
 47
1.0
 47
0.0
 47
0.0
 47
0.0
 47
0.0
 47
1.0
171
     0
 49
0.020833
 49
0.0
 49
0.0
 49
0.0
 49
0.0
 49
0.020833
 49
0.0
 49
0.0
 49
0.0
 49
0.0
 49
1.0
 49
0.0
 49
0.0
 49
0.0
 49
0.0
 49
1.0
175
     0
142
0.020833
142
0.0
142
0.0
142
0.0
142
0.0
142
0.020833
142
0.0
142
0.0
142
0.0
142
0.0
142
1.0
142
0.0
142
0.0
142
0.0
142
0.0
142
1.0
179
     0
144
0.020833
144
0.0
144
0.0
144
0.0
144
0.0
144
0.020833
144
0.0
144
0.0
144
0.0
144
0.0
144
1.0
144
0.0
144
0.0
144
0.0
144
0.0
144
1.0
147
0.020833
147
0.0
147
0.0
147
0.0
147
0.0
147
0.020833
147
0.0
147
0.0
147
0.0
147
0.0
147
1.0
147
0.0
147
0.0
147
0.0
147
0.0
147
1.0
  0
MLEADERSTYLE
  5
1D72
102
{ACAD_REACTORS
330
1D25
102
}
330
1D25
100
AcDbMLeaderStyle
170
     2
171
     1
172
     0
 90
        2
 40
0.0
 41
0.0
173
     1
 91
-1056964608
340
1D02
 92
       -2
290
     1
 42
0.09
291
     1
 43
0.36
  3
Standard
 44
0.18
300

342
1CFF
174
     1
178
     6
175
     1
176
     0
 93
-1056964608
 45
0.18
292
     0
297
     0
 46
0.18
 94
-1056964608
 47
1.0
 49
1.0
140
1.0
293
     1
141
0.0
294
     1
177
     0
142
1.0
295
     0
296
     0
143
0.125
1001
ACAD_MLEADERVER
1070
     2
  0
MLINESTYLE
  5
1D26
102
{ACAD_REACTORS
330
1D10
102
}
330
1D10
100
AcDbMlineStyle
  2
STANDARD
 70
     0
  3

 62
   256
 51
90.0
 52
90.0
 71
     2
 49
0.5
 62
   256
  6
BYLAYER
 49
-0.5
 62
   256
  6
BYLAYER
  0
ACDBPLACEHOLDER
  5
1CE4
102
{ACAD_REACTORS
330
1CE5
102
}
330
1CE5
  0
SCALE
  5
1D2A
102
{ACAD_REACTORS
330
1D23
102
}
330
1D23
100
AcDbScale
 70
     0
300
1:1
140
1.0
141
1.0
290
     1
  0
SCALE
  5
1D2B
102
{ACAD_REACTORS
330
1D23
102
}
330
1D23
100
AcDbScale
 70
     0
300
1:2
140
1.0
141
2.0
290
     0
  0
SCALE
  5
1D2C
102
{ACAD_REACTORS
330
1D23
102
}
330
1D23
100
AcDbScale
 70
     0
300
1:4
140
1.0
141
4.0
290
     0
  0
SCALE
  5
1D2D
102
{ACAD_REACTORS
330
1D23
102
}
330
1D23
100
AcDbScale
 70
     0
300
1:5
140
1.0
141
5.0
290
     0
  0
SCALE
  5
1D2E
102
{ACAD_REACTORS
330
1D23
102
}
330
1D23
100
AcDbScale
 70
     0
300
1:8
140
1.0
141
8.0
290
     0
  0
SCALE
  5
1D2F
102
{ACAD_REACTORS
330
1D23
102
}
330
1D23
100
AcDbScale
 70
     0
300
1:10
140
1.0
141
10.0
290
     0
  0
SCALE
  5
1D30
102
{ACAD_REACTORS
330
1D23
102
}
330
1D23
100
AcDbScale
 70
     0
300
1:16
140
1.0
141
16.0
290
     0
  0
SCALE
  5
1D31
102
{ACAD_REACTORS
330
1D23
102
}
330
1D23
100
AcDbScale
 70
     0
300
1:20
140
1.0
141
20.0
290
     0
  0
SCALE
  5
1D32
102
{ACAD_REACTORS
330
1D23
102
}
330
1D23
100
AcDbScale
 70
     0
300
1:30
140
1.0
141
30.0
290
     0
  0
SCALE
  5
1D33
102
{ACAD_REACTORS
330
1D23
102
}
330
1D23
100
AcDbScale
 70
     0
300
1:40
140
1.0
141
40.0
290
     0
  0
SCALE
  5
1D34
102
{ACAD_REACTORS
330
1D23
102
}
330
1D23
100
AcDbScale
 70
     0
300
1:50
140
1.0
141
50.0
290
     0
  0
SCALE
  5
1D35
102
{ACAD_REACTORS
330
1D23
102
}
330
1D23
100
AcDbScale
 70
     0
300
1:100
140
1.0
141
100.0
290
     0
  0
SCALE
  5
1D36
102
{ACAD_REACTORS
330
1D23
102
}
330
1D23
100
AcDbScale
 70
     0
300
2:1
140
2.0
141
1.0
290
     0
  0
SCALE
  5
1D37
102
{ACAD_REACTORS
330
1D23
102
}
330
1D23
100
AcDbScale
 70
     0
300
4:1
140
4.0
141
1.0
290
     0
  0
SCALE
  5
1D38
102
{ACAD_REACTORS
330
1D23
102
}
330
1D23
100
AcDbScale
 70
     0
300
8:1
140
8.0
141
1.0
290
     0
  0
SCALE
  5
1D39
102
{ACAD_REACTORS
330
1D23
102
}
330
1D23
100
AcDbScale
 70
     0
300
10:1
140
10.0
141
1.0
290
     0
  0
SCALE
  5
1D3A
102
{ACAD_REACTORS
330
1D23
102
}
330
1D23
100
AcDbScale
 70
     0
300
100:1
140
100.0
141
1.0
290
     0
  0
SCALE
  5
1D3B
102
{ACAD_REACTORS
330
1D23
102
}
330
1D23
100
AcDbScale
 70
     0
300
1/128" = 1'-0"
140
0.007813
141
12.0
290
     0
  0
SCALE
  5
1D3C
102
{ACAD_REACTORS
330
1D23
102
}
330
1D23
100
AcDbScale
 70
     0
300
1/64" = 1'-0"
140
0.015625
141
12.0
290
     0
  0
SCALE
  5
1D3D
102
{ACAD_REACTORS
330
1D23
102
}
330
1D23
100
AcDbScale
 70
     0
300
1/32" = 1'-0"
140
0.03125
141
12.0
290
     0
  0
SCALE
  5
1D3E
102
{ACAD_REACTORS
330
1D23
102
}
330
1D23
100
AcDbScale
 70
     0
300
1/16" = 1'-0"
140
0.0625
141
12.0
290
     0
  0
SCALE
  5
1D3F
102
{ACAD_REACTORS
330
1D23
102
}
330
1D23
100
AcDbScale
 70
     0
300
3/32" = 1'-0"
140
0.09375
141
12.0
290
     0
  0
SCALE
  5
1D40
102
{ACAD_REACTORS
330
1D23
102
}
330
1D23
100
AcDbScale
 70
     0
300
1/8" = 1'-0"
140
0.125
141
12.0
290
     0
  0
SCALE
  5
1D41
102
{ACAD_REACTORS
330
1D23
102
}
330
1D23
100
AcDbScale
 70
     0
300
3/16" = 1'-0"
140
0.1875
141
12.0
290
     0
  0
SCALE
  5
1D42
102
{ACAD_REACTORS
330
1D23
102
}
330
1D23
100
AcDbScale
 70
     0
300
1/4" = 1'-0"
140
0.25
141
12.0
290
     0
  0
SCALE
  5
1D43
102
{ACAD_REACTORS
330
1D23
102
}
330
1D23
100
AcDbScale
 70
     0
300
3/8" = 1'-0"
140
0.375
141
12.0
290
     0
  0
SCALE
  5
1D44
102
{ACAD_REACTORS
330
1D23
102
}
330
1D23
100
AcDbScale
 70
     0
300
1/2" = 1'-0"
140
0.5
141
12.0
290
     0
  0
SCALE
  5
1D45
102
{ACAD_REACTORS
330
1D23
102
}
330
1D23
100
AcDbScale
 70
     0
300
3/4" = 1'-0"
140
0.75
141
12.0
290
     0
  0
SCALE
  5
1D46
102
{ACAD_REACTORS
330
1D23
102
}
330
1D23
100
AcDbScale
 70
     0
300
1" = 1'-0"
140
1.0
141
12.0
290
     0
  0
SCALE
  5
1D47
102
{ACAD_REACTORS
330
1D23
102
}
330
1D23
100
AcDbScale
 70
     0
300
1-1/2" = 1'-0"
140
1.5
141
12.0
290
     0
  0
SCALE
  5
1D48
102
{ACAD_REACTORS
330
1D23
102
}
330
1D23
100
AcDbScale
 70
     0
300
3" = 1'-0"
140
3.0
141
12.0
290
     0
  0
SCALE
  5
1D49
102
{ACAD_REACTORS
330
1D23
102
}
330
1D23
100
AcDbScale
 70
     0
300
6" = 1'-0"
140
6.0
141
12.0
290
     0
  0
SCALE
  5
1D4A
102
{ACAD_REACTORS
330
1D23
102
}
330
1D23
100
AcDbScale
 70
     0
300
1'-0" = 1'-0"
140
12.0
141
12.0
290
     0
  0
TABLESTYLE
  5
1D27
102
{ACAD_XDICTIONARY
360
1D57
102
}
102
{ACAD_REACTORS
330
1D24
102
}
330
1D24
100
AcDbTableStyle
  3
Standard
 70
     0
 71
     0
 40
0.06
 41
0.06
280
     0
281
     0
  7
Standard
140
0.18
170
     2
 62
     0
 63
     7
283
     0
 90
        4
 91
        0
  1

274
    -2
284
     1
 64
     0
275
    -2
285
     1
 65
     0
276
    -2
286
     1
 66
     0
277
    -2
287
     1
 67
     0
278
    -2
288
     1
 68
     0
279
    -2
289
     1
 69
     0
  7
Standard
140
0.25
170
     5
 62
     0
 63
     7
283
     0
 90
        4
 91
        0
  1

274
    -2
284
     1
 64
     0
275
    -2
285
     1
 65
     0
276
    -2
286
     1
 66
     0
277
    -2
287
     1
 67
     0
278
    -2
288
     1
 68
     0
279
    -2
289
     1
 69
     0
  7
Standard
140
0.18
170
     5
 62
     0
 63
     7
283
     0
 90
        4
 91
        0
  1

274
    -2
284
     1
 64
     0
275
    -2
285
     1
 65
     0
276
    -2
286
     1
 66
     0
277
    -2
287
     1
 67
     0
278
    -2
288
     1
 68
     0
279
    -2
289
     1
 69
     0
  0
VISUALSTYLE
  5
1D08
102
{ACAD_XDICTIONARY
360
1DCA
102
}
102
{ACAD_REACTORS
330
1D09
102
}
330
1D09
100
AcDbVisualStyle
  2

 70
     4
 71
     0
 72
     2
 73
     0
 90
        0
 40
-0.6
 41
-30.0
 62
     5
 63
     7
421
 16777215
 74
     1
 91
        4
 64
     7
 65
   257
 75
     1
175
     1
 42
1.0
 92
        0
 66
   257
 43
1.0
 76
     1
 77
     6
 78
     2
 67
     7
 79
     5
170
     0
171
     0
290
     0
174
     0
 93
        1
 44
0.0
173
     0
291
     0
 45
0.0
1001
ACAD
1000
AcDbSavedByObjectVersion
1070
     0
  0
VISUALSTYLE
  5
1D67
102
{ACAD_XDICTIONARY
360
1DDA
102
}
102
{ACAD_REACTORS
330
1D09
102
}
330
1D09
100
AcDbVisualStyle
  2
3D Hidden
 70
     6
 71
     1
 72
     2
 73
     2
 90
        0
 40
-0.6
 41
-30.0
 62
     5
 63
     7
421
 16777215
 74
     2
 91
        2
 64
     7
 65
   257
 75
     2
175
     1
 42
179.0
 92
        0
 66
   257
 43
1.0
 76
     1
 77
     6
 78
     2
 67
     7
 79
     3
170
     0
171
     0
290
     0
174
     0
 93
        1
 44
0.0
173
     0
291
     0
 45
0.0
1001
ACAD
1000
AcDbSavedByObjectVersion
1070
     0
  0
VISUALSTYLE
  5
1D29
102
{ACAD_XDICTIONARY
360
1DCE
102
}
102
{ACAD_REACTORS
330
1D09
102
}
330
1D09
100
AcDbVisualStyle
  2

 70
     5
 71
     0
 72
     2
 73
     0
 90
        0
 40
-0.6
 41
-30.0
 62
     5
 63
     7
421
 16777215
 74
     1
 91
        4
 64
     7
 65
   257
 75
     1
175
     1
 42
1.0
 92
        0
 66
   257
 43
1.0
 76
     1
 77
     6
 78
     2
 67
     7
 79
     5
170
     0
171
     0
290
     0
174
     0
 93
        1
 44
0.0
173
     0
291
     0
 45
0.0
1001
ACAD
1000
AcDbSavedByObjectVersion
1070
     0
  0
VISUALSTYLE
  5
1D66
102
{ACAD_XDICTIONARY
360
1DD8
102
}
102
{ACAD_REACTORS
330
1D09
102
}
330
1D09
100
AcDbVisualStyle
  2
Basic
 70
     7
 71
     1
 72
     0
 73
     1
 90
        0
 40
-0.6
 41
-30.0
 62
     5
 63
     7
421
 16777215
 74
     0
 91
        4
 64
     7
 65
   257
 75
     1
175
     1
 42
1.0
 92
        8
 66
     7
 43
1.0
 76
     1
 77
     6
 78
     2
 67
     7
 79
     5
170
     0
171
     0
290
     0
174
     0
 93
        1
 44
0.0
173
     0
291
     1
 45
0.0
1001
ACAD
1000
AcDbSavedByObjectVersion
1070
     0
  0
VISUALSTYLE
  5
1D6A
102
{ACAD_XDICTIONARY
360
1DE0
102
}
102
{ACAD_REACTORS
330
1D09
102
}
330
1D09
100
AcDbVisualStyle
  2
Brighten
 70
    12
 71
     2
 72
     2
 73
     0
 90
        0
 40
-0.6
 41
-30.0
 62
     5
 63
     7
421
 16777215
 74
     1
 91
        4
 64
     7
 65
   257
 75
     1
175
     1
 42
1.0
 92
        8
 66
     7
 43
1.0
 76
     1
 77
     6
 78
     2
 67
     7
 79
     5
170
     0
171
     0
290
     0
174
     0
 93
        1
 44
50.0
173
     0
291
     1
 45
0.0
1001
ACAD
1000
AcDbSavedByObjectVersion
1070
     0
  0
VISUALSTYLE
  5
1D6E
102
{ACAD_XDICTIONARY
360
1DE8
102
}
102
{ACAD_REACTORS
330
1D09
102
}
330
1D09
100
AcDbVisualStyle
  2
ColorChange
 70
    16
 71
     2
 72
     2
 73
     3
 90
        0
 40
-0.6
 41
-30.0
 62
     5
 63
     8
421
  8421504
 74
     1
 91
        4
 64
     7
 65
   257
 75
     1
175
     1
 42
1.0
 92
        8
 66
     8
424
  8421504
 43
1.0
 76
     1
 77
     6
 78
     2
 67
     7
 79
     5
170
     0
171
     0
290
     0
174
     0
 93
        1
 44
0.0
173
     0
291
     1
 45
0.0
1001
ACAD
1000
AcDbSavedByObjectVersion
1070
     0
  0
VISUALSTYLE
  5
1D68
102
{ACAD_XDICTIONARY
360
1DDC
102
}
102
{ACAD_REACTORS
330
1D09
102
}
330
1D09
100
AcDbVisualStyle
  2
Conceptual
 70
     9
 71
     3
 72
     2
 73
     0
 90
        0
 40
-0.6
 41
-30.0
 62
     5
 63
     7
421
 16777215
 74
     2
 91
        2
 64
     7
 65
   257
 75
     1
175
     1
 42
179.0
 92
        8
 66
     7
 43
1.0
 76
     1
 77
     6
 78
     2
 67
     7
 79
     3
170
     0
171
     0
290
     0
174
     0
 93
        1
 44
0.0
173
     0
291
     0
 45
0.0
1001
ACAD
1000
AcDbSavedByObjectVersion
1070
     0
  0
VISUALSTYLE
  5
1D69
102
{ACAD_XDICTIONARY
360
1DDE
102
}
102
{ACAD_REACTORS
330
1D09
102
}
330
1D09
100
AcDbVisualStyle
  2
Dim
 70
    11
 71
     2
 72
     2
 73
     0
 90
        0
 40
-0.6
 41
-30.0
 62
     5
 63
     7
421
 16777215
 74
     1
 91
        4
 64
     7
 65
   257
 75
     1
175
     1
 42
1.0
 92
        8
 66
     7
 43
1.0
 76
     1
 77
     6
 78
     2
 67
     7
 79
     5
170
     0
171
     0
290
     0
174
     0
 93
        1
 44
-50.0
173
     0
291
     1
 45
0.0
1001
ACAD
1000
AcDbSavedByObjectVersion
1070
     0
  0
VISUALSTYLE
  5
1D71
102
{ACAD_XDICTIONARY
360
1DEE
102
}
102
{ACAD_REACTORS
330
1D09
102
}
330
1D09
100
AcDbVisualStyle
  2
EdgeColorOff
 70
    22
 71
     2
 72
     2
 73
     0
 90
        0
 40
-0.6
 41
-30.0
 62
     5
 63
     7
421
 16777215
 74
     1
 91
        4
 64
     7
 65
   257
 75
     1
175
     1
 42
1.0
 92
        8
 66
     7
 43
1.0
 76
     1
 77
     6
 78
     2
 67
     7
 79
     5
170
     0
171
     0
290
     0
174
     0
 93
        1
 44
0.0
173
     0
291
     1
 45
0.0
1001
ACAD
1000
AcDbSavedByObjectVersion
1070
     0
  0
VISUALSTYLE
  5
1D6D
102
{ACAD_XDICTIONARY
360
1DE6
102
}
102
{ACAD_REACTORS
330
1D09
102
}
330
1D09
100
AcDbVisualStyle
  2
Facepattern
 70
    15
 71
     2
 72
     2
 73
     0
 90
        0
 40
-0.6
 41
-30.0
 62
     5
 63
     7
421
 16777215
 74
     1
 91
        4
 64
     7
 65
   257
 75
     1
175
     1
 42
1.0
 92
        8
 66
     7
 43
1.0
 76
     1
 77
     6
 78
     2
 67
     7
 79
     5
170
     0
171
     0
290
     0
174
     0
 93
        1
 44
0.0
173
     0
291
     1
 45
0.0
1001
ACAD
1000
AcDbSavedByObjectVersion
1070
     0
  0
VISUALSTYLE
  5
1D62
102
{ACAD_XDICTIONARY
360
1DD0
102
}
102
{ACAD_REACTORS
330
1D09
102
}
330
1D09
100
AcDbVisualStyle
  2
Flat
 70
     0
 71
     2
 72
     1
 73
     1
 90
        2
 40
-0.6
 41
30.0
 62
     5
 63
     7
421
 16777215
 74
     0
 91
        4
 64
     7
 65
   257
 75
     1
175
     1
 42
1.0
 92
        8
 66
     7
 43
1.0
 76
     1
 77
     6
 78
     2
 67
     7
 79
     5
170
     0
171
     0
290
     0
174
     0
 93
       13
 44
0.0
173
     0
291
     1
 45
0.0
1001
ACAD
1000
AcDbSavedByObjectVersion
1070
     0
  0
VISUALSTYLE
  5
1D63
102
{ACAD_XDICTIONARY
360
1DD2
102
}
102
{ACAD_REACTORS
330
1D09
102
}
330
1D09
100
AcDbVisualStyle
  2
FlatWithEdges
 70
     1
 71
     2
 72
     1
 73
     1
 90
        2
 40
-0.6
 41
30.0
 62
     5
 63
     7
421
 16777215
 74
     1
 91
        4
 64
     7
 65
   257
 75
     1
175
     1
 42
1.0
 92
        0
 66
   257
 43
1.0
 76
     1
 77
     6
 78
     2
 67
     7
 79
     5
170
     0
171
     0
290
     0
174
     0
 93
       13
 44
0.0
173
     0
291
     1
 45
0.0
1001
ACAD
1000
AcDbSavedByObjectVersion
1070
     0
  0
VISUALSTYLE
  5
1D64
102
{ACAD_XDICTIONARY
360
1DD4
102
}
102
{ACAD_REACTORS
330
1D09
102
}
330
1D09
100
AcDbVisualStyle
  2
Gouraud
 70
     2
 71
     2
 72
     2
 73
     1
 90
        2
 40
-0.6
 41
30.0
 62
     5
 63
     7
421
 16777215
 74
     0
 91
        4
 64
     7
 65
   257
 75
     1
175
     1
 42
1.0
 92
        0
 66
     7
 43
1.0
 76
     1
 77
     6
 78
     2
 67
     7
 79
     5
170
     0
171
     0
290
     0
174
     0
 93
       13
 44
0.0
173
     0
291
     1
 45
0.0
1001
ACAD
1000
AcDbSavedByObjectVersion
1070
     0
  0
VISUALSTYLE
  5
1D65
102
{ACAD_XDICTIONARY
360
1DD6
102
}
102
{ACAD_REACTORS
330
1D09
102
}
330
1D09
100
AcDbVisualStyle
  2
GouraudWithEdges
 70
     3
 71
     2
 72
     2
 73
     1
 90
        2
 40
-0.6
 41
30.0
 62
     5
 63
     7
421
 16777215
 74
     1
 91
        4
 64
     7
 65
   257
 75
     1
175
     1
 42
1.0
 92
        0
 66
   257
 43
1.0
 76
     1
 77
     6
 78
     2
 67
     7
 79
     5
170
     0
171
     0
290
     0
174
     0
 93
       13
 44
0.0
173
     0
291
     1
 45
0.0
1001
ACAD
1000
AcDbSavedByObjectVersion
1070
     0
  0
VISUALSTYLE
  5
1D6F
102
{ACAD_XDICTIONARY
360
1DEA
102
}
102
{ACAD_REACTORS
330
1D09
102
}
330
1D09
100
AcDbVisualStyle
  2
JitterOff
 70
    20
 71
     2
 72
     2
 73
     0
 90
        0
 40
-0.6
 41
-30.0
 62
     5
 63
     7
421
 16777215
 74
     1
 91
        4
 64
     7
 65
   257
 75
     1
175
     1
 42
1.0
 92
       10
 66
     7
 43
1.0
 76
     1
 77
     6
 78
     2
 67
     7
 79
     5
170
     0
171
     0
290
     0
174
     0
 93
        1
 44
0.0
173
     0
291
     1
 45
0.0
1001
ACAD
1000
AcDbSavedByObjectVersion
1070
     0
  0
VISUALSTYLE
  5
1D6C
102
{ACAD_XDICTIONARY
360
1DE4
102
}
102
{ACAD_REACTORS
330
1D09
102
}
330
1D09
100
AcDbVisualStyle
  2
Linepattern
 70
    14
 71
     2
 72
     2
 73
     0
 90
        0
 40
-0.6
 41
-30.0
 62
     5
 63
     7
421
 16777215
 74
     1
 91
        4
 64
     7
 65
   257
 75
     7
175
     7
 42
1.0
 92
        8
 66
     7
 43
1.0
 76
     1
 77
     6
 78
     2
 67
     7
 79
     5
170
     0
171
     0
290
     0
174
     0
 93
        1
 44
0.0
173
     0
291
     1
 45
0.0
1001
ACAD
1000
AcDbSavedByObjectVersion
1070
     0
  0
VISUALSTYLE
  5
1D70
102
{ACAD_XDICTIONARY
360
1DEC
102
}
102
{ACAD_REACTORS
330
1D09
102
}
330
1D09
100
AcDbVisualStyle
  2
OverhangOff
 70
    21
 71
     2
 72
     2
 73
     0
 90
        0
 40
-0.6
 41
-30.0
 62
     5
 63
     7
421
 16777215
 74
     1
 91
        4
 64
     7
 65
   257
 75
     1
175
     1
 42
1.0
 92
        9
 66
     7
 43
1.0
 76
     1
 77
     6
 78
     2
 67
     7
 79
     5
170
     0
171
     0
290
     0
174
     0
 93
        1
 44
0.0
173
     0
291
     1
 45
0.0
1001
ACAD
1000
AcDbSavedByObjectVersion
1070
     0
  0
VISUALSTYLE
  5
1D28
102
{ACAD_XDICTIONARY
360
1DCC
102
}
102
{ACAD_REACTORS
330
1D09
102
}
330
1D09
100
AcDbVisualStyle
  2

 70
     8
 71
     2
 72
     2
 73
     0
 90
        0
 40
-0.6
 41
-30.0
 62
     5
 63
     7
421
 16777215
 74
     1
 91
        0
 64
     7
 65
   257
 75
     1
175
     1
 42
1.0
 92
        8
 66
     8
424
  7895160
 43
1.0
 76
     1
 77
     6
 78
     2
 67
     7
 79
     5
170
     0
171
     0
290
     0
174
     0
 93
       13
 44
0.0
173
     0
291
     0
 45
0.0
1001
ACAD
1000
AcDbSavedByObjectVersion
1070
     0
  0
VISUALSTYLE
  5
1D6B
102
{ACAD_XDICTIONARY
360
1DE2
102
}
102
{ACAD_REACTORS
330
1D09
102
}
330
1D09
100
AcDbVisualStyle
  2
Thicken
 70
    13
 71
     2
 72
     2
 73
     0
 90
        0
 40
-0.6
 41
-30.0
 62
     5
 63
     7
421
 16777215
 74
     1
 91
        4
 64
     7
 65
   257
 75
     1
175
     1
 42
1.0
 92
       12
 66
     7
 43
1.0
 76
     1
 77
     6
 78
     2
 67
     7
 79
     5
170
     0
171
     0
290
     0
174
     0
 93
        1
 44
0.0
173
     0
291
     1
 45
0.0
1001
ACAD
1000
AcDbSavedByObjectVersion
1070
     0
  0
DICTIONARYVAR
  5
1D53
102
{ACAD_REACTORS
330
1D4F
102
}
330
1D4F
100
DictionaryVariables
280
     0
  1
1:1
  0
DICTIONARYVAR
  5
1D51
102
{ACAD_REACTORS
330
1D4F
102
}
330
1D4F
100
DictionaryVariables
280
     0
  1
STANDARD
  0
DICTIONARYVAR
  5
1D50
102
{ACAD_REACTORS
330
1D4F
102
}
330
1D4F
100
DictionaryVariables
280
     0
  1
STANDARD
  0
DICTIONARYVAR
  5
1D55
102
{ACAD_REACTORS
330
1D4F
102
}
330
1D4F
100
DictionaryVariables
280
     0
  1
1
  0
DICTIONARYVAR
  5
1D56
102
{ACAD_REACTORS
330
1D4F
102
}
330
1D4F
100
DictionaryVariables
280
     0
  1
15
  0
DICTIONARYVAR
  5
1D54
102
{ACAD_REACTORS
330
1D4F
102
}
330
1D4F
100
DictionaryVariables
280
     0
  1
0
  0
DICTIONARYVAR
  5
1D52
102
{ACAD_REACTORS
330
1D4F
102
}
330
1D4F
100
DictionaryVariables
280
     0
  1
0
  0
DICTIONARY
  5
1CF8
330
1CF7
100
AcDbDictionary
280
     1
281
     1
  3
ADSK_XREC_LAYOUTTHUMBNAIL
360
1CF9
  0
DICTIONARY
  5
1D1B
330
1D1A
100
AcDbDictionary
280
     1
281
     1
  3
BUMPTILE
360
1D1C
  3
DIFFUSETILE
360
1D1D
  3
OPACITYTILE
360
1D1E
  3
REFLECTIONTILE
360
1D1F
  3
REFRACTIONTILE
360
1D20
  3
SPECULARTILE
360
1D21
  0
DICTIONARY
  5
1D13
330
1D12
100
AcDbDictionary
280
     1
281
     1
  3
BUMPTILE
360
1D14
  3
DIFFUSETILE
360
1D15
  3
OPACITYTILE
360
1D16
  3
REFLECTIONTILE
360
1D17
  3
REFRACTIONTILE
360
1D18
  3
SPECULARTILE
360
1D19
  0
DICTIONARY
  5
1CE9
330
1CE7
100
AcDbDictionary
280
     1
281
     1
  3
BUMPTILE
360
1CEA
  3
DIFFUSETILE
360
1CEB
  3
OPACITYTILE
360
1CEC
  3
REFLECTIONTILE
360
1CED
  3
REFRACTIONTILE
360
1CEE
  3
SPECULARTILE
360
1CEF
  0
DICTIONARY
  5
1D57
330
1D27
100
AcDbDictionary
280
     1
281
     1
  3
ACAD_ROUNDTRIP_2008_TABLESTYLE_CELLSTYLEMAP
360
1DC8
  0
DICTIONARY
  5
1DCA
330
1D08
100
AcDbDictionary
280
     1
281
     1
  3
ACAD_XREC_ROUNDTRIP
360
1DCB
  0
DICTIONARY
  5
1DDA
330
1D67
100
AcDbDictionary
280
     1
281
     1
  3
ACAD_XREC_ROUNDTRIP
360
1DDB
  0
DICTIONARY
  5
1DCE
330
1D29
100
AcDbDictionary
280
     1
281
     1
  3
ACAD_XREC_ROUNDTRIP
360
1DCF
  0
DICTIONARY
  5
1DD8
330
1D66
100
AcDbDictionary
280
     1
281
     1
  3
ACAD_XREC_ROUNDTRIP
360
1DD9
  0
DICTIONARY
  5
1DE0
330
1D6A
100
AcDbDictionary
280
     1
281
     1
  3
ACAD_XREC_ROUNDTRIP
360
1DE1
  0
DICTIONARY
  5
1DE8
330
1D6E
100
AcDbDictionary
280
     1
281
     1
  3
ACAD_XREC_ROUNDTRIP
360
1DE9
  0
DICTIONARY
  5
1DDC
330
1D68
100
AcDbDictionary
280
     1
281
     1
  3
ACAD_XREC_ROUNDTRIP
360
1DDD
  0
DICTIONARY
  5
1DDE
330
1D69
100
AcDbDictionary
280
     1
281
     1
  3
ACAD_XREC_ROUNDTRIP
360
1DDF
  0
DICTIONARY
  5
1DEE
330
1D71
100
AcDbDictionary
280
     1
281
     1
  3
ACAD_XREC_ROUNDTRIP
360
1DEF
  0
DICTIONARY
  5
1DE6
330
1D6D
100
AcDbDictionary
280
     1
281
     1
  3
ACAD_XREC_ROUNDTRIP
360
1DE7
  0
DICTIONARY
  5
1DD0
330
1D62
100
AcDbDictionary
280
     1
281
     1
  3
ACAD_XREC_ROUNDTRIP
360
1DD1
  0
DICTIONARY
  5
1DD2
330
1D63
100
AcDbDictionary
280
     1
281
     1
  3
ACAD_XREC_ROUNDTRIP
360
1DD3
  0
DICTIONARY
  5
1DD4
330
1D64
100
AcDbDictionary
280
     1
281
     1
  3
ACAD_XREC_ROUNDTRIP
360
1DD5
  0
DICTIONARY
  5
1DD6
330
1D65
100
AcDbDictionary
280
     1
281
     1
  3
ACAD_XREC_ROUNDTRIP
360
1DD7
  0
DICTIONARY
  5
1DEA
330
1D6F
100
AcDbDictionary
280
     1
281
     1
  3
ACAD_XREC_ROUNDTRIP
360
1DEB
  0
DICTIONARY
  5
1DE4
330
1D6C
100
AcDbDictionary
280
     1
281
     1
  3
ACAD_XREC_ROUNDTRIP
360
1DE5
  0
DICTIONARY
  5
1DEC
330
1D70
100
AcDbDictionary
280
     1
281
     1
  3
ACAD_XREC_ROUNDTRIP
360
1DED
  0
DICTIONARY
  5
1DCC
330
1D28
100
AcDbDictionary
280
     1
281
     1
  3
ACAD_XREC_ROUNDTRIP
360
1DCD
  0
DICTIONARY
  5
1DE2
330
1D6B
100
AcDbDictionary
280
     1
281
     1
  3
ACAD_XREC_ROUNDTRIP
360
1DE3
  0
XRECORD
  5
1CF9
102
{ACAD_REACTORS
330
1CF8
102
}
330
1CF8
100
AcDbXrecord
280
     1
310
28000000B40000008B0000000100080000000000BC61000000000000000000000001000000000000FFFFFF0000000000FFFFFF000000000000000000000000000000000000000000000000000000000000000000330000006600000099000000CC000000FF00000000330000333300006633000099330000CC330000FF3300
310
0000660000336600006666000099660000CC660000FF66000000990000339900006699000099990000CC990000FF99000000CC000033CC000066CC000099CC0000CCCC0000FFCC000000FF000033FF000066FF000099FF0000CCFF0000FFFF000000003300330033006600330099003300CC003300FF003300003333003333
310
33006633330099333300CC333300FF33330000663300336633006666330099663300CC663300FF66330000993300339933006699330099993300CC993300FF99330000CC330033CC330066CC330099CC3300CCCC3300FFCC330000FF330033FF330066FF330099FF3300CCFF3300FFFF330000006600330066006600660099
310
006600CC006600FF00660000336600333366006633660099336600CC336600FF33660000666600336666006666660099666600CC666600FF66660000996600339966006699660099996600CC996600FF99660000CC660033CC660066CC660099CC6600CCCC6600FFCC660000FF660033FF660066FF660099FF6600CCFF6600
310
FFFF660000009900330099006600990099009900CC009900FF00990000339900333399006633990099339900CC339900FF33990000669900336699006666990099669900CC669900FF66990000999900339999006699990099999900CC999900FF99990000CC990033CC990066CC990099CC9900CCCC9900FFCC990000FF99
310
0033FF990066FF990099FF9900CCFF9900FFFF99000000CC003300CC006600CC009900CC00CC00CC00FF00CC000033CC003333CC006633CC009933CC00CC33CC00FF33CC000066CC003366CC006666CC009966CC00CC66CC00FF66CC000099CC003399CC006699CC009999CC00CC99CC00FF99CC0000CCCC0033CCCC0066CC
310
CC0099CCCC00CCCCCC00FFCCCC0000FFCC0033FFCC0066FFCC0099FFCC00CCFFCC00FFFFCC000000FF003300FF006600FF009900FF00CC00FF00FF00FF000033FF003333FF006633FF009933FF00CC33FF00FF33FF000066FF003366FF006666FF009966FF00CC66FF00FF66FF000099FF003399FF006699FF009999FF00CC
310
99FF00FF99FF0000CCFF0033CCFF0066CCFF0099CCFF00CCCCFF00FFCCFF0000FFFF0033FFFF0066FFFF0099FFFF00CCFFFF00FFFFFF00000000000D0D0D001A1A1A00282828003535350043434300505050005D5D5D006B6B6B00787878008686860093939300A1A1A100AEAEAE00BBBBBB00C9C9C900D6D6D600E4E4E400
310
F1F1F100FFFFFF0000000000000000000000000000000000000000000000000000000000000000000000000000000000E2E2E2E2E2E2E2E2E2E2E2E2E2E2E2E2E2E2E2E2E2E2E2E2E2E2E2E2E2E2E2E2E2E2E2E2E2E2E2E2E2E2E2E2E2E2E2E2E2E2E2E2E2E2E2E2E2E2E2E2E2E2E2E2E2E2E2E2E2E2E2E2E2E2E2E2E2E2E2
310
E2E2E2E2E2E2E2E2E2E2E2E2E2E2E2E2E2E2E2E2E2E2E2E2E2E2E2E2E2E2E2E2E2E2E2E2E2E2E2E2E2E2E2E2E2E2E2E2E2E2E2E2E2E2E2E2E2E2E2E2E2E2E2E2E2E2E2E2E2E2E2E2E2E2E2E2E2E2E2E2E2E2E2E2E2E2E2E2E2E2E2E2E2E2E2E2E2E2E2E2EFF5F5F5F5F5F5F5F5F5F5F5F5F5F5F5F5F5F5F5F5F5F5F5F5F5F5
310
F5F5F5F5F5F5F5F5F5F5F5F5F5F5F5F5F5F5F5F5F5F5F5F5F5F5F5F5F5F5F5F5F5F5F5F5F5F5F5F5F5F5F5F5F5F5F5F5F5F5F5F5F5F5F5F5F5F5F5F5F5F5F5F5F5F5F5F5F5F5F5F5F5F5F5F5F5F5F5F5F5F5F5F5F5F5F5F5F5F5F5F5F5F5F5F5F5F5F5F5F5F5F5F5F5F5F5F5F5F5F5F5F5F5F5F5F5F5F5F5F5F5F5F5F5F5F5
310
F5F5F5F5F5F5F5F5F5F5F5F5F5F5F5F5F5F5F5F5F5F5F5F5E2E2EFF5F5F5F5F5F5F5F5F5F5F5F5F5F5F5F5F5F5F5F5F5F5F5F5F5F5F5F5F5F5F5F5F5F5F5F5F5F5F5F5F5F5F5F5F5F5F5F5F5F5F5F5F5F5F5F5F5F5F5F5F5F5F5F5F5F5F5F5F5F5F5F5F5F5F5F5F5F5F5F5F5F5F5F5F5F5F5F5F5F5F5F5F5F5F5F5F5F5F5F5
310
F5F5F5F5F5F5F5F5F5F5F5F5F5F5F5F5F5F5F5F5F5F5F5F5F5F5F5F5F5F5F5F5F5F5F5F5F5F5F5F5F5F5F5F5F5F5F5F5F5F5F5F5F5F5F5F5F5F5F5F5F5F5F5F5F5F5F5F5F5F5F5F5F5F5F5F5F5E2E2EFF5F5F5F5F5F5F5F5F5F5F5F5F5F5F5F5F5F5F5F5F5F5F5F5F5F5F5F5F5F5F5F5F5F5F5F5F5F5F5F5F5F5F5F5F5F5F5
310
F5F5F5F5F5F5F5F5F5F5F5F5F5F5F5F5F5F5F5F5F5F5F5F5F5F5F5F5F5F5F5F5F5F5F5F5F5F5F5F5F5F5F5F5F5F5F5F5F5F5F5F5F5F5F5F5F5F5F5F5F5F5F5F5F5F5F5F5F5F5F5F5F5F5F5F5F5F5F5F5F5F5F5F5F5F5F5F5F5F5F5F5F5F5F5F5F5F5F5F5F5F5F5F5F5F5F5F5F5F5F5F5F5F5F5F5F5F5F5F5F5F5F5F5F5F5F5
310
F5F5F5E2E2EFF5F5F5E2E2E2E2E2E2E2E2F5F5F5F5F5F5F5F5F5E2E2E2E2E2E2E2E2E2E2E2E2E2E2E2E2F5F5F5F5F5F5F5F5E2E2E2E2E2E2E2E2E2E2E2E2E2E2E2E2F5F5F5F5F5F5F5F5F5E2E2E2E2E2E2E2E2E2E2E2E2E2E2E2F5F5F5F5F5F5F5F5F5E2E2E2E2E2E2E2E2E2E2E2E2E2E2E2F5F5F5F5F5F5F5F5F5E2E2E2E2
310
E2E2E2E2E2E2E2E2E2E2E2E2F5F5F5F5F5F5F5F5E2E2E2E2E2E2E2E2E2E2E2E2E2E2E2E2F5F5F5F5F5F5F5F5F5E2E2E2E2E2E2E2E2F5F5F5E2E2EFF5F5F5E2F5F5F5F5F5F5F5F5F5F5F5F5F5F5F5F5F5F5F5F5F5F5F5F5F5F5F5F5F5F5F5F5F5F5F5F5F5F5F5F5F5F5F5F5F5F5F5F5F5F5F5F5F5F5F5F5F5F5F5F5F5F5F5F5
310
F5F5F5F5F5F5F5F5F5F5F5F5F5F5F5F5F5F5F5F5F5F5F5F5F5F5F5F5F5F5F5F5F5F5F5F5F5F5F5F5F5F5F5F5F5F5F5F5F5F5F5F5F5F5F5F5F5F5F5F5F5F5F5F5F5F5F5F5F5F5F5F5F5F5F5F5F5F5F5F5F5F5F5F5F5F5F5F5F5F5F5F5F5F5F5F5F5F5F5F5F5F5F5F5F5E2F5F5F5E2E2EFF5F5F5E2F5F5F5F5F5F5F5F5F5F5F5
310
F5F5F5F5F5F5F5F5F5F5F5F5F5F5F5F5F5F5F5F5F5F5F5F5F5F5F5F5F5F5F5F5F5F5F5F5F5F5F5F5F5F5F5F5F5F5F5F5F5F5F5F5F5F5F5F5F5F5F5F5F5F5F5F5F5F5F5F5F5F5F5F5F5F5F5F5F5F5F5F5F5F5F5F5F5F5F5F5F5F5F5F5F5F5F5F5F5F5F5F5F5F5F5F5F5F5F5F5F5F5F5F5F5F5F5F5F5F5F5F5F5F5F5F5F5F5F5
310
F5F5F5F5F5F5F5F5F5F5F5F5F5F5F5F5F5F5F5F5F5F5F5F5F5F5F5F5F5F5F5E2F5F5F5E2E2EFF5F5F5E2F5F5F5F5F5F5F5F5F5F5F5F5F5F5F5F5F5F5F5F5F5F5F5F5F5F5F5F5F5F5F5F5F5F5F5F5F5F5F5F5F5F5F5F5F5F5F5F5F5F5F5F5F5F5F5F5F5F5F5F5F5F5F5F5F5F5F5F5F5F5F5F5F5F5F5F5F5F5F5F5F5F5F5F5F5
310
F5F5F5F5F5F5F5F5F5F5F5F5F5F5F5F5F5F5F5F5F5F5F5F5F5F5F5F5F5F5F5F5F5F5F5F5F5F5F5F5F5F5F5F5F5F5F5F5F5F5F5F5F5F5F5F5F5F5F5F5F5F5F5F5F5F5F5F5F5F5F5F5F5F5F5F5F5F5F5F5F5F5F5F5E2F5F5F5E2E2EFF5F5F5E2F5F5F5F5F5F5F5F5F5F5F5F5F5F5F5F5F5F5F5F5F5F5F5F5F5F5F5F5F5F5F5F5
310
F5F5F5F5F5F5F5F5F5F5F5F5F5F5F5F5F5F5F5F5F5F5F5F5F5F5F5F5F5F5F5F5F5F5F5F5F5F5F5F5F5F5F5F5F5F5F5F5F5F5F5F5F5F5F5F5F5F5F5F5F5F5F5F5F5F5F5F5F5F5F5F5F5F5F5F5F5F5F5F5F5F5F5F5F5F5F5F5F5F5F5F5F5F5F5F5F5F5F5F5F5F5F5F5F5F5F5F5F5F5F5F5F5F5F5F5F5F5F5F5F5F5F5F5F5F5F5
310
F5F5F5F5F5F5F5F5F5F5E2F5F5F5E2E2EFF5F5F5E2F5F5F5F5F5F5F5F5F5F5F5F5F5F5F5F5F5F5F5F5F5F5F5F5F5F5F5F5F5F5F5F5F5F5F5F5F5F5F5F5F5F5F5F5F5F5F5F5F5F5F5F5F5F5F5F5F5F5F5F5F5F5F5F5F5F5F5F5F5F5F5F5F5F5F5F5F5F5F5F5F5F5F5F5F5F5F5F5F5F5F5F5F5F5F5F5F5F5F5F5F5F5F5F5F5F5
310
F5F5F5F5F5F5F5F5F5F5F5F5F5F5F5F5F5F5F5F5F5F5F5F5F5F5F5F5F5F5F5F5F5F5F5F5F5F5F5F5F5F5F5F5F5F5F5F5F5F5F5F5F5F5F5F5F5F5F5F5F5F5F5E2F5F5F5E2E2EFF5F5F5E2F5F5F5F5F5F5F5F5F5F5F5F5F5F5F5F5F5F5F5F5F5F5F5F5F5F5F5F5F5F5F5F5F5F5F5F5F5F5F5F5F5F5F5F5F5F5F5F5F5F5F5F5F5
310
F5F5F5F5F5F5F5F5F5F5F5F5F5F5F5F5F5F5F5F5F5F5F5F5F5F5F5F5F5F5F5F5F5F5F5F5F5F5F5F5F5F5F5F5F5F5F5F5F5F5F5F5F5F5F5F5F5F5F5F5F5F5F5F5F5F5F5F5F5F5F5F5F5F5F5F5F5F5F5F5F5F5F5F5F5F5F5F5F5F5F5F5F5F5F5F5F5F5F5F5F5F5F5F5F5F5F5F5F5F5F5F5F5F5F5F5E2F5F5F5E2E2EFF5F5F5E2
310
F5F5F5F5F5F5F5F5F5F5F5F5F5F5F5F5F5F5F5F5F5F5F5F5F5F5F5F5F5F5F5F5F5F5F5F5F5F5F5F5F5F5F5F5F5F5F5F5F5F5F5F5F5F5F5F5F5F5F5F5F5F5F5F5F5F5F5F5F5F5F5F5F5F5F5F5F5F5F5F5F5F5F5F5F5F5F5F5F5F5F5F5F5F5F5F5F5F5F5F5F5F5F5F5F5F5F5F5F5F5F5F5F5F5F5F5F5F5F5F5F5F5F5F5F5F5F5
310
F5F5F5F5F5F5F5F5F5F5F5F5F5F5F5F5F5F5F5F5F5F5F5F5F5F5F5F5F5F5F5F5F5F5F5F5F5F5F5F5F5F5E2F5F5F5E2E2EFF5F5F5E2F5F5F5F5F5F5F5F5F5F5F5F5F5F5F5F5F5F5F5F5F5F5F5F5F5F5F5F5F5F5F5F5F5F5F5F5F5F5F5F5F5F5F5F5F5F5F5F5F5F5F5F5F5F5F5F5F5F5F5F5F5F5F5F5F5F5F5F5F5F5F5F5F5F5
310
F5F5F5F5F5F5F5F5F5F5F5F5F5F5F5F5F5F5F5F5F5F5F5F5F5F5F5F5F5F5F5F5F5F5F5F5F5F5F5F5F5F5F5F5F5F5F5F5F5F5F5F5F5F5F5F5F5F5F5F5F5F5F5F5F5F5F5F5F5F5F5F5F5F5F5F5F5F5F5F5F5F5F5F5F5F5F5F5F5F5F5F5F5F5F5E2F5F5F5E2E2EFF5F5F5F5F5F5F5F5F5F5F5F5F5F5F5F5F5F5F5F5F5F5F5F5F5
310
F5F5F5F5F5F5F5F5F5F5F5F5F5F5F5F5F5F5F5F5F5F5F5F5F5F5F5F5F5F5F5F5F5F5F5F5F5F5F5F5F5F5F5F5F5F5F5F5F5F5F5F5F5F5F5F5F5F5F5F5F5F5F5F5F5F5F5F5F5F5F5F5F5F5F5F5F5F5F5F5F5F5F5F5F5F5F5F5F5F5F5F5F5F5F5F5F5F5F5F5F5F5F5F5F5F5F5F5F5F5F5F5F5F5F5F5F5F5F5F5F5F5F5F5F5F5F5
310
F5F5F5F5F5F5F5F5F5F5F5F5F5F5F5F5F5F5F5F5F5F5F5F5F5E2E2EFF5F5F5F5F5F5F5F5F5F5F5F5F5F5F5F5F5F5F5F5F5F5F5F5F5F5F5F5F5F5F5F5F5F5F5F5F5F5F5F5F5F5F5F5F5F5F5F5F5F5F5F5F5F5F5F5F5F5F5F5F5F5F5F5F5F5F5F5F5F5F5F5F5F5F5F5F5F5F5F5F5F5F5F5F5F5F5F5F5F5F5F5F5F5F5F5F5F5F5
310
F5F5F5F5F5F5F5F5F5F5F5F5F5F5F5F5F5F5F5F5F5F5F5F5F5F5F5F5F5F5F5F5F5F5F5F5F5F5F5F5F5F5F5F5F5F5F5F5F5F5F5F5F5F5F5F5F5F5F5F5F5F5F5F5F5F5F5F5F5F5F5F5F5F5F5F5F5F5E2E2EFF5F5F5F5F5F5F5F5F5F5F5F5F5F5F5F5F5F5F5F5F5F5F5F5F5F5F5F5F5F5F5F5F5F5F5F5F5F5F5F5F5F5F5F5F5F5
310
F5F5F5F5F5F5F5F5F5F5F5F5F5F5F5F5F5F5F5F5F5F5F5F5F5F5F5F5F5F5F5F5F5F5F5F5F5F5F5F5F5F5F5F5F5F5F5F5F5F5F5F5F5F5F5F5F5F5F5F5F5F5F5F5F5F5F5F5F5F5F5F5F5F5F5F5F5F5F5F5F5F5F5F5F5F5F5F5F5F5F5F5F5F5F5F5F5F5F5F5F5F5F5F5F5F5F5F5F5F5F5F5F5F5F5F5F5F5F5F5F5F5F5F5F5F5F5
310
F5F5F5F5E2E2EFF5F5F5F5F5F5F5F5F5F5F5F5F5F5F5F5F5F5F5F5F5F5F5F5F5F5F5F5F5F5F5F5F5F5F5F5F5F5F5F5F5F5F5F5F5F5F5F5F5F5F5F5F5F5F5F5F5F5F5F5F5F5F5F5F5F5F5F5F5F5F5F5F5F5F5F5F5F5F5F5F5F5F5F5F5F5F5F5F5F5F5F5F5F5F5F5F5F5F5F5F5F5F5F5F5F5F5F5F5F5F5F5F5F5F5F5F5F5F5F5
310
F5F5F5F5F5F5F5F5F5F5F5F5F5F5F5F5F5F5F5F5F5F5F5F5F5F5F5F5F5F5F5F5F5F5F5F5F5F5F5F5F5F5F5F5F5F5F5F5F5F5F5F5F5F5F5F5F5E2E2EFF5F5F5F5F5F5F5F5F5F5F5F5F5F5F5F5F5F5F5F5E2E2E2E2E2E2E2E2E2E2E2E2E2E2E2E2E2E2E2E2E2E2E2E2E2E2E2E2E2E2E2E2E2E2E2E2E2E2E2E2E2E2E2E2E2E2E2
310
E2E2E2E2E2E2E2E2E2E2E2E2E2E2E2E2E2E2E2E2E2E2E2E2E2E2E2E2E2E2E2E2E2E2E2E2E2E2E2E2E2E2E2E2E2E2E2E2E2E2E2E2E2E2E2E2E2E2E2E2E2E2E2E2E2E2E2E2E2E2E2E2E2E2E2E2E2E2E2E2E2E2E2E2E2E2E2E2E2E2F5F5F5F5F5F5F5F5F5F5F5F5F5F5F5F5F5F5F5F5E2E2EFF5F5F5F5F5F5F5F5F5F5F5F5F5F5
310
F5F5F5F5F5F5E2F5F5F5F5F5F5F5F5F5F5F5F5F5F5F5F5F5F5F5F5F5F5F5F5F5F5F5F5F5F5F5F5F5F5F5F5F5F5F5F5F5F5F5F5F5F5F5F5F5F5F5F5F5F5F5F5F5F5F5F5F5F5F5F5F5F5F5F5F5F5F5F5F5F5F5F5F5F5F5F5F5F5F5F5F5F5F5F5F5F5F5F5F5F5F5F5F5F5F5F5F5F5F5F5F5F5F5F5F5F5F5F5F5F5F5F5F5F5F5F5
310
F5F5F5F5F5F5F5F5F5F5F5F5F5F5F5E2F5F5F5F5F5F5F5F5F5F5F5F5F5F5F5F5F5F5F5F5E2E2EFF5F5F5F5F5F5F5F5F5F5F5F5F5F5F5F5F5F5F5F5E2F5F5F5F5F5F5F5F5F5F5F5F5F5F5F5F5F5F5F5F5F5F5F5F5F5F5F5F5F5F5F5F5F5F5F5F5F5F5F5F5F5F5F5F5F5F5F5F5F5F5F5F5F5F5F5F5F5F5F5F5F5F5F5F5F5F5F5
310
F5F5F5F5F5F5F5F5F5F5F5F5F5F5F5F5F5F5F5F5F5F5F5F5F5F5F5F5F5F5F5F5F5F5F5F5F5F5F5F5F5F5F5F5F5F5F5F5F5F5F5F5F5F5F5F5F5F5F5F5F5F5F5F5F5F5F5F5E2F5F5F5F5F5F5F5F5F5F5F5F5F5F5F5F5F5F5F5F5E2E2EFF5F5F5F5F5F5F5F5F5F5F5F5F5F5F5F5F5F5F5F5E2F5F5F5F5F5F5F5F5F5F5F5F5F5F5
310
F5F5F5F5F5F5F5F5F5F5F5F5F5F5F5F5F5F5F5F5F5F5F5F5F5F5F5F5F5F5F5F5F5F5F5F5F5F5F5F5F5F5F5F5F5F5F5F5F5F5F5F5F5F5F5F5F5F5F5F5F5F5F5F5F5F5F5F5F5F5F5F5F5F5F5F5F5F5F5F5F5F5F5F5F5F5F5F5F5F5F5F5F5F5F5F5F5F5F5F5F5F5F5F5F5F5F5F5F5F5F5F5F5F5F5F5F5F5F5F5F5E2F5F5F5F5F5
310
F5F5F5F5F5F5F5F5F5F5F5F5F5F5F5E2E2EFF5F5F5F5F5F5F5F5F5F5F5F5F5F5F5F5F5F5F5F5E2F5F5F5F5F5F5F5F5F5F5F5F5F5F5F5F5F5F5F5F5F5F5F5F5F5F5F5F5F5F5F5F5F5F5F5F5F5F5F5F5F5F5F5F5F5F5F5F5F5F5F5F5F5F5F5F5F5F5F5F5F5F5F5F5F5F5F5F5F5F5F5F5F5F5F5F5F5F5F5F5F5F5F5F5F5F5F5F5
310
F5F5F5F5F5F5F5F5F5F5F5F5F5F5F5F5F5F5F5F5F5F5F5F5F5F5F5F5F5F5F5F5F5F5F5F5F5F5F5F5F5F5F5F5F5F5F5E2F5F5F5F5F5F5F5F5F5F5F5F5F5F5F5F5F5F5F5F5E2E2EFF5F5F5E2F5F5F5F5F5F5F5F5F5F5F5F5F5F5F5F5E2F5F5F5F5F5F5F5F5F5F5F5F5F5F5F5F5F5F5F5F5F5F5F5F5F5F5F5F5F5F5F5F5F5F5F5
310
F5F5F5F5F5F5F5F5F5F5F5F5F5F5F5F5F5F5F5F5F5F5F5F5F5F5F5F5F5F5F5F5F5F5F5F5F5F5F5F5F5F5F5F5F5F5F5F5F5F5F5F5F5F5F5F5F5F5F5F5F5F5F5F5F5F5F5F5F5F5F5F5F5F5F5F5F5F5F5F5F5F5F5F5F5F5F5F5F5F5F5F5F5F5F5F5F5F5F5F5E2F5F5F5F5F5F5F5F5F5F5F5F5F5F5F5F5E2F5F5F5E2E2EFF5F5F5
310
E2F5F5F5F5F5F5F5F5F5F5F5F5F5F5F5F5E2F5F5F5F5F5F5F5F5F5F5F5F5F5F5F5F5F5F5F5F5F5F5F5F5F5F5F5F5F5F5F5F5F5F5F5F5F5F5F5F5F5F5F5F5F5F5F5F5F5F5F5F5F5F5F5F5F5F5F5F5F5F5F5F5F5F5F5F5F5F5F5F5F5F5F5F5F5F5F5F5F5F5F5F5F5F5F5F5F5F5F5F5F5F5F5F5F5F5F5F5F5F5F5F5F5F5F5F5F5
310
F5F5F5F5F5F5F5F5F5F5F5F5F5F5F5F5F5F5F5F5F5F5F5F5F5F5E2F5F5F5F5F5F5F5F5F5F5F5F5F5F5F5F5E2F5F5F5E2E2EFF5F5F5E2F5F5F5F5F5F5F5F5F5F5F5F5F5F5F5F5E2F5F5F5F5F5F5F5F5F5F5F5F5F5F5F5F5F5F5F5F5F5F5F5F5F5F5F5F5F5F5F5F5F5F5F5F5F5F5F5F5F5F5F5F5F5F5F5F5F5F5F5F5F5F5F5F5
310
F5F5F5F5F5F5F5F5F5F5F5F5F5F5F5F5F5F5F5F5F5F5F5F5F5F5F5F5F5F5F5F5F5F5F5F5F5F5F5F5F5F5F5F5F5F5F5F5F5F5F5F5F5F5F5F5F5F5F5F5F5F5F5F5F5F5F5F5F5F5F5F5F5F5F5F5F5F5F5E2F5F5F5F5F5F5F5F5F5F5F5F5F5F5F5F5E2F5F5F5E2E2EFF5F5F5E2F5F5F5F5F5F5F5F5F5F5F5F5F5F5F5F5E2F5F5F5
310
F5F5F5F5F5F5F5F5F5F5F5F5F5F5F5F5F5F5F5F5F5F5F5F5F5F5F5F5F5F5F5F5F5F5F5F5F5F5F5F5F5F5F5F5F5F5F5F5F5F5F5F5F5F5F5F5F5F5F5F5F5F5F5F5F5F5F5F5F5F5F5F5F5F5F5F5F5F5F5F5F5F5F5F5F5F5F5F5F5F5F5F5F5F5F5F5F5F5F5F5F5F5F5F5F5F5F5F5F5F5F5F5F5F5F5F5F5F5F5F5F5F5F5F5F5F5F5
310
F5F5F5F5F5E2F5F5F5F5F5F5F5F5F5F5F5F5F5F5F5F5E2F5F5F5E2E2EFF5F5F5E2F5F5F5F5F5F5F5F5F5F5F5F5F5F5F5F5E2F5F5F5F5F5F5F5F5F5F5F5F5F5F5F5F5F5F5F5F5F5F5F5F5F5F5F5F5F5F5F5F5F5F5F5F5F5F5F5F5F5F5F5F5F5F5F5F5F5F5F5F5F5F5F5F5F5F5F5F5F5F5F5F5F5F5F5F5F5F5F5F5F5F5F5F5F5
310
F5F5F5F5F5F5F5F5F5F5F5F5F5F5F5F5F5F5F5F5F5F5F5F5F5F5F5F5F5F5F5F5F5F5F5F5F5F5F5F5F5F5F5F5F5F5F5F5F5F5F5F5F5F5F5F5F5F5E2F5F5F5F5F5F5F5F5F5F5F5F5F5F5F5F5E2F5F5F5E2E2EFF5F5F5E2F5F5F5F5F5F5F5F5F5F5F5F5F5F5F5F5E2F5F5F5F5F5F5F5F5F5F5F5F5F5F5F5F5F5F5F5F5F5F5F5F5
310
F5F5F5F5F5F5F5F5F5F5F5F5F5F5F5F5F5F5F5F5F5F5F5F5F5F5F5F5F5F5F5F5F5F5F5F5F5F5F5F5F5F5F5F5F5F5F5F5F5F5F5F5F5F5F5F5F5F5F5F5F5F5F5F5F5F5F5F5F5F5F5F5F5F5F5F5F5F5F5F5F5F5F5F5F5F5F5F5F5F5F5F5F5F5F5F5F5F5F5F5F5F5F5F5F5F5F5F5F5F5F5E2F5F5F5F5F5F5F5F5F5F5F5F5F5F5F5
310
F5E2F5F5F5E2E2EFF5F5F5E2F5F5F5F5F5F5F5F5F5F5F5F5F5F5F5F5E2F5F5F5F5F5F5F5F5F5F5F5F5F5F5F5F5F5F5F5F5F5F5F5F5F5F5F5F5F5F5F5F5F5F5F5F5F5F5F5F5F5F5F5F5F5F5F5F5F5F5F5F5F5F5F5F5F5F5F5F5F5F5F5F5F5F5F5F5F5F5F5F5F5F5F5F5F5F5F5F5F5F5F5F5F5F5F5F5F5F5F5F5F5F5F5F5F5F5
310
F5F5F5F5F5F5F5F5F5F5F5F5F5F5F5F5F5F5F5F5F5F5F5F5F5F5F5F5F5F5F5F5F5F5F5F5F5E2F5F5F5F5F5F5F5F5F5F5F5F5F5F5F5F5E2F5F5F5E2E2EFF5F5F5E2F5F5F5F5F5F5F5F5F5F5F5F5F5F5F5F5E2F5F5F5F5F5F5F5F5F5F5F5F5F5F5F5F5F5F5F5F5F5F5F5F5F5F5F5F5F5F5F5F5F5F5F5F5F5F5F5F5F5F5F5F5F5
310
F5F5F5F5F5F5F5F5F5F5F5F5F5F5F5F5F5F5F5F5F5F5F5F5F5F5F5F5F5F5F5F5F5F5F5F5F5F5F5F5F5F5F5F5F5F5F5F5F5F5F5F5F5F5F5F5F5F5F5F5F5F5F5F5F5F5F5F5F5F5F5F5F5F5F5F5F5F5F5F5F5F5F5F5F5F5F5F5F5F5E2F5F5F5F5F5F5F5F5F5F5F5F5F5F5F5F5E2F5F5F5E2E2EFF5F5F5E2F5F5F5F5F5F5F5F5F5
310
F5F5F5F5F5F5F5E2F5F5F5F5F5F5F5F5F5F5F5F5F5F5F5F5F5F5F5F5F5F5F5F5F5F5F5F5F5F5F5F5F5F5F5F5F5F5F5F5F5F5F5F5F5F5F5F5F5F5F5F5F5F5F5F5F5F5F5F5F5F5F5F5F5F5F5F5F5F5F5F5F5F5F5F5F5F5F5F5F5F5F5F5F5F5F5F5F5F5F5F5F5F5F5F5F5F5F5F5F5F5F5F5F5F5F5F5F5F5F5F5F5F5F5F5F5F5F5
310
F5F5F5F5F5F5F5F5F5F5F5F5F5F5F5F5E2F5F5F5F5F5F5F5F5F5F5F5F5F5F5F5F5E2F5F5F5E2E2EFF5F5F5E2F5F5F5F5F5F5F5F5F5F5F5F5F5F5F5F5E2F5F5F5F5F5F5F5F5F5F5F5F5F5F5F5F5F5F5F5F5F5F5F5F5F5F5F5F5F5F5F5F5F5F5F5F5F5F5F5F5F5F5F5F5F5F5F5F5F5F5F5F5F5F5F5F5F5F5F5F5F5F5F5F5F5F5
310
F5F5F5F5F5F5F5F5F5F5F5F5F5F5F5F5F5F5F5F5F5F5F5F5F5F5F5F5F5F5F5F5F5F5F5F5F5F5F5F5F5F5F5F5F5F5F5F5F5F5F5F5F5F5F5F5F5F5F5F5F5F5F5F5F5F5F5F5F5E2F5F5F5F5F5F5F5F5F5F5F5F5F5F5F5F5E2F5F5F5E2E2EFF5F5F5E2F5F5F5F5F5F5F5F5F5F5F5F5F5F5F5F5E2F5F5F5F5F5F5F5F5F5F5F5F5F5
310
F5F5F5F5F5F5F5F5F5F5F5F5F5F5F5F5F5F5F5F5F5F5F5F5F5F5F5F5F5F5F5F5F5F5F5F5F5F5F5F5F5F5F5F5F5F5F5F5F5F5F5F5F5F5F5F5F5F5F5F5F5F5F5F5F5F5F5F5F5F5F5F5F5F5F5F5F5F5F5F5F5F5F5F5F5F5F5F5F5F5F5F5F5F5F5F5F5F5F5F5F5F5F5F5F5F5F5F5F5F5F5F5F5F5F5F5F5F5F5F5F5F5E2F5F5F5F5
310
F5F5F5F5F5F5F5F5F5F5F5F5E2F5F5F5E2E2EFF5F5F5E2F5F5F5F5F5F5F5F5F5F5F5F5F5F5F5F5E2F5F5F5F5F5F5F5F5F5F5F5F5F5F5F5F5F5F5F5F5F5F5F5F5F5F5F5F5F5F5F5F5F5F5F5F5F5F5F5F5F5F5F5F5F5F5F5F5F5F5F5F5F5F5F5F5F5F5F5F5F5F5F5F5F5F5F5F5F5F5F5F5F5F5F5F5F5F5F5F5F5F5F5F5F5F5F5
310
F5F5F5F5F5F5F5F5F5F5F5F5F5F5F5F5F5F5F5F5F5F5F5F5F5F5F5F5F5F5F5F5F5F5F5F5F5F5F5F5F5F5F5F5F5F5F5F5E2F5F5F5F5F5F5F5F5F5F5F5F5F5F5F5F5E2F5F5F5E2E2EFF5F5F5E2F5F5F5F5F5F5F5F5F5F5F5F5F5F5F5F5E2F5F5F5F5F5F5F5F5F5F5F5F5F5F5F5F5F5F5F5F5F5F5F5F5F5F5F5F5F5F5F5F5F5F5
310
F5F5F5F5F5F5F5F5F5F5F5F5F5F5F5F5F5F5F5F5F5F5F5F5F5F5F5F5F5F5F5F5F5F5F5F5F5F5F5F5F5F5F5F5F5F5F5F5F5F5F5F5F5F5F5F5F5F5F5F5F5F5F5F5F5F5F5F5F5F5F5F5F5F5F5F5F5F5F5F5F5F5F5F5F5F5F5F5F5F5F5F5F5F5F5F5F5F5F5F5F5E2F5F5F5F5F5F5F5F5F5F5F5F5F5F5F5F5E2F5F5F5E2E2EFF5F5
310
F5E2F5F5F5F5F5F5F5F5F5F5F5F5F5F5F5F5E2F5F5F5F5F5F5F5F5F5F5F5F5F5F5F5F5F5F5F5F5F5F5F5F5F5F5F5F5F5F5F5F5F5F5F5F5F5F5F5F5F5F5F5F5F5F5F5F5F5F5F5F5F5F5F5F5F5F5F5F5F5F5F5F5F5F5F5F5F5F5F5F5F5F5F5F5F5F5F5F5F5F5F5F5F5F5F5F5F5F5F5F5F5F5F5F5F5F5F5F5F5F5F5F5F5F5F5F5
310
F5F5F5F5F5F5F5F5F5F5F5F5F5F5F5F5F5F5F5F5F5F5F5F5F5F5F5E2F5F5F5F5F5F5F5F5F5F5F5F5F5F5F5F5E2F5F5F5E2E2EFF5F5F5E2F5F5F5F5F5F5F5F5F5F5F5F5F5F5F5F5E2F5F5F5F5F5F5F5F5F5F5F5F5F5F5F5F5F5F5F5F5F5F5F5F5F5F5F5F5F5F5F5F5F5F5F5F5F5F5F5F5F5F5F5F5F5F5F5F5F5F5F5F5F5F5F5
310
F5F5F5F5F5F5F5F5F5F5F5F5F5F5F5F5F5F5F5F5F5F5F5F5F5F5F5F5F5F5F5F5F5F5F5F5F5F5F5F5F5F5F5F5F5F5F5F5F5F5F5F5F5F5F5F5F5F5F5F5F5F5F5F5F5F5F5F5F5F5F5F5F5F5F5F5F5F5F5F5E2F5F5F5F5F5F5F5F5F5F5F5F5F5F5F5F5E2F5F5F5E2E2EFF5F5F5E2F5F5F5F5F5F5F5F5F5F5F5F5F5F5F5F5E2F5F5
310
F5F5F5F5F5F5F5F5F5F5F5F5F5F5F5F5F5F5F5F5F5F5F5F5F5F5F5F5F5F5F5F5F5F5F5F5F5F5F5F5F5F5F5F5F5F5F5F5F5F5F5F5F5F5F5F5F5F5F5F5F5F5F5F5F5F5F5F5F5F5F5F5F5F5F5F5F5F5F5F5F5F5F5F5F5F5F5F5F5F5F5F5F5F5F5F5F5F5F5F5F5F5F5F5F5F5F5F5F5F5F5F5F5F5F5F5F5F5F5F5F5F5F5F5F5F5F5
310
F5F5F5F5F5F5E2F5F5F5F5F5F5F5F5F5F5F5F5F5F5F5F5E2F5F5F5E2E2EFF5F5F5E2F5F5F5F5F5F5F5F5F5F5F5F5F5F5F5F5E2F5F5F5F5F5F5F5F5F5F5F5F5F5F5F5F5F5F5F5F5F5F5F5F5F5F5F5F5F5F5F5F5F5F5F5F5F5F5F5F5F5F5F5F5F5F5F5F5F5F5F5F5F5F5F5F5F5F5F5F5F5F5F5F5F5F5F5F5F5F5F5F5F5F5F5F5
310
F5F5F5F5F5F5F5F5F5F5F5F5F5F5F5F5F5F5F5F5F5F5F5F5F5F5F5F5F5F5F5F5F5F5F5F5F5F5F5F5F5F5F5F5F5F5F5F5F5F5F5F5F5F5F5F5F5F5F5E2F5F5F5F5F5F5F5F5F5F5F5F5F5F5F5F5E2F5F5F5E2E2EFF5F5F5F5F5F5F5F5F5F5F5F5F5F5F5F5F5F5F5F5E2F5F5F5F5F5F5F5F5F5F5F5F5F5F5F5F5F5F5F5F5F5F5F5
310
F5F5F5F5F5F5F5F5F5F5F5F5F5F5F5F5F5F5F5F5F5F5F5F5F5F5F5F5F5F5F5F5F5F5F5F5F5F5F5F5F5F5F5F5F5F5F5F5F5F5F5F5F5F5F5F5F5F5F5F5F5F5F5F5F5F5F5F5F5F5F5F5F5F5F5F5F5F5F5F5F5F5F5F5F5F5F5F5F5F5F5F5F5F5F5F5F5F5F5F5F5F5F5F5F5F5F5F5F5F5F5F5E2F5F5F5F5F5F5F5F5F5F5F5F5F5F5
310
F5F5F5F5F5F5E2E2EFF5F5F5F5F5F5F5F5F5F5F5F5F5F5F5F5F5F5F5F5E2F5F5F5F5F5F5F5F5F5F5F5F5F5F5F5F5F5F5F5F5F5F5F5F5F5F5F5F5F5F5F5F5F5F5F5F5F5F5F5F5F5F5F5F5F5F5F5F5F5F5F5F5F5F5F5F5F5F5F5F5F5F5F5F5F5F5F5F5F5F5F5F5F5F5F5F5F5F5F5F5F5F5F5F5F5F5F5F5F5F5F5F5F5F5F5F5F5
310
F5F5F5F5F5F5F5F5F5F5F5F5F5F5F5F5F5F5F5F5F5F5F5F5F5F5F5F5F5F5F5F5F5F5F5F5F5F5E2F5F5F5F5F5F5F5F5F5F5F5F5F5F5F5F5F5F5F5F5E2E2EFF5F5F5F5F5F5F5F5F5F5F5F5F5F5F5F5F5F5F5F5E2F5F5F5F5F5F5F5F5F5F5F5F5F5F5F5F5F5F5F5F5F5F5F5F5F5F5F5F5F5F5F5F5F5F5F5F5F5F5F5F5F5F5F5F5
310
F5F5F5F5F5F5F5F5F5F5F5F5F5F5F5F5F5F5F5F5F5F5F5F5F5F5F5F5F5F5F5F5F5F5F5F5F5F5F5F5F5F5F5F5F5F5F5F5F5F5F5F5F5F5F5F5F5F5F5F5F5F5F5F5F5F5F5F5F5F5F5F5F5F5F5F5F5F5F5F5F5F5F5F5F5F5F5F5F5F5F5E2F5F5F5F5F5F5F5F5F5F5F5F5F5F5F5F5F5F5F5F5E2E2EFF5F5F5F5F5F5F5F5F5F5F5F5
310
F5F5F5F5F5F5F5F5E2F5F5F5F5F5F5F5F5F5F5F5F5F5F5F5F5F5F5F5F5F5F5F5F5F5F5F5F5F5F5F5F5F5F5F5F5F5F5F5F5F5F5F5F5F5F5F5F5F5F5F5F5F5F5F5F5F5F5F5F5F5F5F5F5F5F5F5F5F5F5F5F5F5F5F5F5F5F5F5F5F5F5F5F5F5F5F5F5F5F5F5F5F5F5F5F5F5F5F5F5F5F5F5F5F5F5F5F5F5F5F5F5F5F5F5F5F5F5
310
F5F5F5F5F5F5F5F5F5F5F5F5F5F5F5F5F5E2F5F5F5F5F5F5F5F5F5F5F5F5F5F5F5F5F5F5F5F5E2E2EFF5F5F5F5F5F5F5F5F5F5F5F5F5F5F5F5F5F5F5F5E2F5F5F5F5F5F5F5F5F5F5F5F5F5F5F5F5F5F5F5F5F5F5F5F5F5F5F5F5F5F5F5F5F5F5F5F5F5F5F5F5F5F5F5F5F5F5F5F5F5F5F5F5F5F5F5F5F5F5F5F5F5F5F5F5F5
310
F5F5F5F5F5F5F5F5F5F5F5F5F5F5F5F5F5F5F5F5F5F5F5F5F5F5F5F5F5F5F5F5F5F5F5F5F5F5F5F5F5F5F5F5F5F5F5F5F5F5F5F5F5F5F5F5F5F5F5F5F5F5F5F5F5F5F5F5F5F5E2F5F5F5F5F5F5F5F5F5F5F5F5F5F5F5F5F5F5F5F5E2E2EFF5F5F5F5F5F5F5F5F5F5F5F5F5F5F5F5F5F5F5F5E2F5F5F5F5F5F5F5F5F5F5F5F5
310
F5F5F5F5F5F5F5F5F5F5F5F5F5F5F5F5F5F5F5F5F5F5F5F5F5F5F5F5F5F5F5F5F5F5F5F5F5F5F5F5F5F5F5F5F5F5F5F5F5F5F5F5F5F5F5F5F5F5F5F5F5F5F5F5F5F5F5F5F5F5F5F5F5F5F5F5F5F5F5F5F5F5F5F5F5F5F5F5F5F5F5F5F5F5F5F5F5F5F5F5F5F5F5F5F5F5F5F5F5F5F5F5F5F5F5F5F5F5F5F5F5F5F5E2F5F5F5
310
F5F5F5F5F5F5F5F5F5F5F5F5F5F5F5F5F5E2E2EFF5F5F5F5F5F5F5F5F5F5F5F5F5F5F5F5F5F5F5F5E2F5F5F5F5F5F5F5F5F5F5F5F5F5F5F5F5F5F5F5F5F5F5F5F5F5F5F5F5F5F5F5F5F5F5F5F5F5F5F5F5F5F5F5F5F5F5F5F5F5F5F5F5F5F5F5F5F5F5F5F5F5F5F5F5F5F5F5F5F5F5F5F5F5F5F5F5F5F5F5F5F5F5F5F5F5F5
310
F5F5F5F5F5F5F5F5F5F5F5F5F5F5F5F5F5F5F5F5F5F5F5F5F5F5F5F5F5F5F5F5F5F5F5F5F5F5F5F5F5F5F5F5F5F5F5F5F5E2F5F5F5F5F5F5F5F5F5F5F5F5F5F5F5F5F5F5F5F5E2E2EFF5F5F5F5F5F5F5F5F5F5F5F5F5F5F5F5F5F5F5F5E2F5F5F5F5F5F5F5F5F5F5F5F5F5F5F5F5F5F5F5F5F5F5F5F5F5F5F5F5F5F5F5F5F5
310
F5F5F5F5F5F5F5F5F5F5F5F5F5F5F5F5F5F5F5F5F5F5F5F5F5F5F5F5F5F5F5F5F5F5F5F5F5F5F5F5F5F5F5F5F5F5F5F5F5F5F5F5F5F5F5F5F5F5F5F5F5F5F5F5F5F5F5F5F5F5F5F5F5F5F5F5F5F5F5F5F5F5F5F5F5F5F5F5F5F5F5F5F5F5F5F5F5F5F5F5F5F5E2F5F5F5F5F5F5F5F5F5F5F5F5F5F5F5F5F5F5F5F5E2E2EFF5
310
F5F5F5F5F5F5F5F5F5F5F5F5F5F5F5F5F5F5F5E2F5F5F5F5F5F5F5F5F5F5F5F5F5F5F5F5F5F5F5F5F5F5F5F5F5F5F5F5F5F5F5F5F5F5F5F5F5F5F5F5F5F5F5F5F5F5F5F5F5F5F5F5F5F5F5F5F5F5F5F5F5F5F5F5F5F5F5F5F5F5F5F5F5F5F5F5F5F5F5F5F5F5F5F5F5F5F5F5F5F5F5F5F5F5F5F5F5F5F5F5F5F5F5F5F5F5F5
310
F5F5F5F5F5F5F5F5F5F5F5F5F5F5F5F5F5F5F5F5F5F5F5F5F5F5F5F5E2F5F5F5F5F5F5F5F5F5F5F5F5F5F5F5F5F5F5F5F5E2E2EFF5F5F5E2F5F5F5F5F5F5F5F5F5F5F5F5F5F5F5F5E2F5F5F5F5F5F5F5F5F5F5F5F5F5F5F5F5F5F5F5F5F5F5F5F5F5F5F5F5F5F5F5F5F5F5F5F5F5F5F5F5F5F5F5F5F5F5F5F5F5F5F5F5F5F5
310
F5F5F5F5F5F5F5F5F5F5F5F5F5F5F5F5F5F5F5F5F5F5F5F5F5F5F5F5F5F5F5F5F5F5F5F5F5F5F5F5F5F5F5F5F5F5F5F5F5F5F5F5F5F5F5F5F5F5F5F5F5F5F5F5F5F5F5F5F5F5F5F5F5F5F5F5F5F5F5F5F5E2F5F5F5F5F5F5F5F5F5F5F5F5F5F5F5F5E2F5F5F5E2E2EFF5F5F5E2F5F5F5F5F5F5F5F5F5F5F5F5F5F5F5F5E2F5
310
F5F5F5F5F5F5F5F5F5F5F5F5F5F5F5F5F5F5F5F5F5F5F5F5F5F5F5F5F5F5F5F5F5F5F5F5F5F5F5F5F5F5F5F5F5F5F5F5F5F5F5F5F5F5F5F5F5F5F5F5F5F5F5F5F5F5F5F5F5F5F5F5F5F5F5F5F5F5F5F5F5F5F5F5F5F5F5F5F5F5F5F5F5F5F5F5F5F5F5F5F5F5F5F5F5F5F5F5F5F5F5F5F5F5F5F5F5F5F5F5F5F5F5F5F5F5F5
310
F5F5F5F5F5F5F5E2F5F5F5F5F5F5F5F5F5F5F5F5F5F5F5F5E2F5F5F5E2E2EFF5F5F5E2F5F5F5F5F5F5F5F5F5F5F5F5F5F5F5F5E2F5F5F5F5F5F5F5F5F5F5F5F5F5F5F5F5F5F5F5F5F5F5F5F5F5F5F5F5F5F5F5F5F5F5F5F5F5F5F5F5F5F5F5F5F5F5F5F5F5F5F5F5F5F5F5F5F5F5F5F5F5F5F5F5F5F5F5F5F5F5F5F5F5F5F5
310
F5F5F5F5F5F5F5F5F5F5F5F5F5F5F5F5F5F5F5F5F5F5F5F5F5F5F5F5F5F5F5F5F5F5F5F5F5F5F5F5F5F5F5F5F5F5F5F5F5F5F5F5F5F5F5F5F5F5F5F5E2F5F5F5F5F5F5F5F5F5F5F5F5F5F5F5F5E2F5F5F5E2E2EFF5F5F5E2F5F5F5F5F5F5F5F5F5F5F5F5F5F5F5F5E2F5F5F5F5F5F5F5F5F5F5F5F5F5F5F5F5F5F5F5F5F5F5
310
F5F5F5F5F5F5F5F5F5F5F5F5F5F5F5F5F5F5F5F5F5F5F5F5F5F5F5F5F5F5F5F5F5F5F5F5F5F5F5F5F5F5F5F5F5F5F5F5F5F5F5F5F5F5F5F5F5F5F5F5F5F5F5F5F5F5F5F5F5F5F5F5F5F5F5F5F5F5F5F5F5F5F5F5F5F5F5F5F5F5F5F5F5F5F5F5F5F5F5F5F5F5F5F5F5F5F5F5F5F5F5F5F5E2F5F5F5F5F5F5F5F5F5F5F5F5F5
310
F5F5F5E2F5F5F5E2E2EFF5F5F5E2F5F5F5F5F5F5F5F5F5F5F5F5F5F5F5F5E2F5F5F5F5F5F5F5F5F5F5F5F5F5F5F5F5F5F5F5F5F5F5F5F5F5F5F5F5F5F5F5F5F5F5F5F5F5F5F5F5F5F5F5F5F5F5F5F5F5F5F5F5F5F5F5F5F5F5F5F5F5F5F5F5F5F5F5F5F5F5F5F5F5F5F5F5F5F5F5F5F5F5F5F5F5F5F5F5F5F5F5F5F5F5F5F5
310
F5F5F5F5F5F5F5F5F5F5F5F5F5F5F5F5F5F5F5F5F5F5F5F5F5F5F5F5F5F5F5F5F5F5F5F5F5F5F5E2F5F5F5F5F5F5F5F5F5F5F5F5F5F5F5F5E2F5F5F5E2E2EFF5F5F5E2F5F5F5F5F5F5F5F5F5F5F5F5F5F5F5F5E2F5F5F5F5F5F5F5F5F5F5F5F5F5F5F5F5F5F5F5F5F5F5F5F5F5F5F5F5F5F5F5F5F5F5F5F5F5F5F5F5F5F5F5
310
F5F5F5F5F5F5F5F5F5F5F5F5F5F5F5F5F5F5F5F5F5F5F5F5F5F5F5F5F5F5F5F5F5F5F5F5F5F5F5F5F5F5F5F5F5F5F5F5F5F5F5F5F5F5F5F5F5F5F5F5F5F5F5F5F5F5F5F5F5F5F5F5F5F5F5F5F5F5F5F5F5F5F5F5F5F5F5F5F5F5F5F5E2F5F5F5F5F5F5F5F5F5F5F5F5F5F5F5F5E2F5F5F5E2E2EFF5F5F5E2F5F5F5F5F5F5F5
310
F5F5F5F5F5F5F5F5F5E2F5F5F5F5F5F5F5F5F5F5F5F5F5F5F5F5F5F5F5F5F5F5F5F5F5F5F5F5F5F5F5F5F5F5F5F5F5F5F5F5F5F5F5F5F5F5F5F5F5F5F5F5F5F5F5F5F5F5F5F5F5F5F5F5F5F5F5F5F5F5F5F5F5F5F5F5F5F5F5F5F5F5F5F5F5F5F5F5F5F5F5F5F5F5F5F5F5F5F5F5F5F5F5F5F5F5F5F5F5F5F5F5F5F5F5F5F5
310
F5F5F5F5F5F5F5F5F5F5F5F5F5F5F5F5F5F5E2F5F5F5F5F5F5F5F5F5F5F5F5F5F5F5F5E2F5F5F5E2E2EFF5F5F5E2F5F5F5F5F5F5F5F5F5F5F5F5F5F5F5F5E2F5F5F5F5F5F5F5F5F5F5F5F5F5F5F5F5F5F5F5F5F5F5F5F5F5F5F5F5F5F5F5F5F5F5F5F5F5F5F5F5F5F5F5F5F5F5F5F5F5F5F5F5F5F5F5F5F5F5F5F5F5F5F5F5
310
F5F5F5F5F5F5F5F5F5F5F5F5F5F5F5F5F5F5F5F5F5F5F5F5F5F5F5F5F5F5F5F5F5F5F5F5F5F5F5F5F5F5F5F5F5F5F5F5F5F5F5F5F5F5F5F5F5F5F5F5F5F5F5F5F5F5F5F5F5F5F5E2F5F5F5F5F5F5F5F5F5F5F5F5F5F5F5F5E2F5F5F5E2E2EFF5F5F5E2F5F5F5F5F5F5F5F5F5F5F5F5F5F5F5F5E2F5F5F5F5F5F5F5F5F5F5F5
310
F5F5F5F5F5F5F5F5F5F5F5F5F5F5F5F5F5F5F5F5F5F5F5F5F5F5F5F5F5F5F5F5F5F5F5F5F5F5F5F5F5F5F5F5F5F5F5F5F5F5F5F5F5F5F5F5F5F5F5F5F5F5F5F5F5F5F5F5F5F5F5F5F5F5F5F5F5F5F5F5F5F5F5F5F5F5F5F5F5F5F5F5F5F5F5F5F5F5F5F5F5F5F5F5F5F5F5F5F5F5F5F5F5F5F5F5F5F5F5F5F5F5F5F5E2F5F5
310
F5F5F5F5F5F5F5F5F5F5F5F5F5F5E2F5F5F5E2E2EFF5F5F5E2F5F5F5F5F5F5F5F5F5F5F5F5F5F5F5F5E2F5F5F5F5F5F5F5F5F5F5F5F5F5F5F5F5F5F5F5F5F5F5F5F5F5F5F5F5F5F5F5F5F5F5F5F5F5F5F5F5F5F5F5F5F5F5F5F5F5F5F5F5F5F5F5F5F5F5F5F5F5F5F5F5F5F5F5F5F5F5F5F5F5F5F5F5F5F5F5F5F5F5F5F5F5
310
F5F5F5F5F5F5F5F5F5F5F5F5F5F5F5F5F5F5F5F5F5F5F5F5F5F5F5F5F5F5F5F5F5F5F5F5F5F5F5F5F5F5F5F5F5F5F5F5F5F5E2F5F5F5F5F5F5F5F5F5F5F5F5F5F5F5F5E2F5F5F5E2E2EFF5F5F5E2F5F5F5F5F5F5F5F5F5F5F5F5F5F5F5F5E2F5F5F5F5F5F5F5F5F5F5F5F5F5F5F5F5F5F5F5F5F5F5F5F5F5F5F5F5F5F5F5F5
310
F5F5F5F5F5F5F5F5F5F5F5F5F5F5F5F5F5F5F5F5F5F5F5F5F5F5F5F5F5F5F5F5F5F5F5F5F5F5F5F5F5F5F5F5F5F5F5F5F5F5F5F5F5F5F5F5F5F5F5F5F5F5F5F5F5F5F5F5F5F5F5F5F5F5F5F5F5F5F5F5F5F5F5F5F5F5F5F5F5F5F5F5F5F5F5F5F5F5F5F5F5F5F5E2F5F5F5F5F5F5F5F5F5F5F5F5F5F5F5F5E2F5F5F5E2E2EF
310
F5F5F5E2F5F5F5F5F5F5F5F5F5F5F5F5F5F5F5F5E2F5F5F5F5F5F5F5F5F5F5F5F5F5F5F5F5F5F5F5F5F5F5F5F5F5F5F5F5F5F5F5F5F5F5F5F5F5F5F5F5F5F5F5F5F5F5F5F5F5F5F5F5F5F5F5F5F5F5F5F5F5F5F5F5F5F5F5F5F5F5F5F5F5F5F5F5F5F5F5F5F5F5F5F5F5F5F5F5F5F5F5F5F5F5F5F5F5F5F5F5F5F5F5F5F5F5
310
F5F5F5F5F5F5F5F5F5F5F5F5F5F5F5F5F5F5F5F5F5F5F5F5F5F5F5F5F5E2F5F5F5F5F5F5F5F5F5F5F5F5F5F5F5F5E2F5F5F5E2E2EFF5F5F5E2F5F5F5F5F5F5F5F5F5F5F5F5F5F5F5F5E2F5F5F5F5F5F5F5F5F5F5F5F5F5F5F5F5F5F5F5F5F5F5F5F5F5F5F5F5F5F5F5F5F5F5F5F5F5F5F5F5F5F5F5F5F5F5F5F5F5F5F5F5F5
310
F5F5F5F5F5F5F5F5F5F5F5F5F5F5F5F5F5F5F5F5F5F5F5F5F5F5F5F5F5F5F5F5F5F5F5F5F5F5F5F5F5F5F5F5F5F5F5F5F5F5F5F5F5F5F5F5F5F5F5F5F5F5F5F5F5F5F5F5F5F5F5F5F5F5F5F5F5F5F5F5F5F5E2F5F5F5F5F5F5F5F5F5F5F5F5F5F5F5F5E2F5F5F5E2E2EFF5F5F5E2F5F5F5F5F5F5F5F5F5F5F5F5F5F5F5F5E2
310
F5F5F5F5F5F5F5F5F5F5F5F5F5F5F5F5F5F5F5F5F5F5F5F5F5F5F5F5F5F5F5F5F5F5F5F5F5F5F5F5F5F5F5F5F5F5F5F5F5F5F5F5F5F5F5F5F5F5F5F5F5F5F5F5F5F5F5F5F5F5F5F5F5F5F5F5F5F5F5F5F5F5F5F5F5F5F5F5F5F5F5F5F5F5F5F5F5F5F5F5F5F5F5F5F5F5F5F5F5F5F5F5F5F5F5F5F5F5F5F5F5F5F5F5F5F5F5
310
F5F5F5F5F5F5F5F5E2F5F5F5F5F5F5F5F5F5F5F5F5F5F5F5F5E2F5F5F5E2E2EFF5F5F5E2F5F5F5F5F5F5F5F5F5F5F5F5F5F5F5F5E2F5F5F5F5F5F5F5F5F5F5F5F5F5F5F5F5F5F5F5F5F5F5F5F5F5F5F5F5F5F5F5F5F5F5F5F5F5F5F5F5F5F5F5F5F5F5F5F5F5F5F5F5F5F5F5F5F5F5F5F5F5F5F5F5F5F5F5F5F5F5F5F5F5F5
310
F5F5F5F5F5F5F5F5F5F5F5F5F5F5F5F5F5F5F5F5F5F5F5F5F5F5F5F5F5F5F5F5F5F5F5F5F5F5F5F5F5F5F5F5F5F5F5F5F5F5F5F5F5F5F5F5F5F5F5F5F5E2F5F5F5F5F5F5F5F5F5F5F5F5F5F5F5F5E2F5F5F5E2E2EFF5F5F5E2F5F5F5F5F5F5F5F5F5F5F5F5F5F5F5F5E2F5F5F5F5F5F5F5F5F5F5F5F5F5F5F5F5F5F5F5F5F5
310
F5F5F5F5F5F5F5F5F5F5F5F5F5F5F5F5F5F5F5F5F5F5F5F5F5F5F5F5F5F5F5F5F5F5F5F5F5F5F5F5F5F5F5F5F5F5F5F5F5F5F5F5F5F5F5F5F5F5F5F5F5F5F5F5F5F5F5F5F5F5F5F5F5F5F5F5F5F5F5F5F5F5F5F5F5F5F5F5F5F5F5F5F5F5F5F5F5F5F5F5F5F5F5F5F5F5F5F5F5F5F5F5F5F5E2F5F5F5F5F5F5F5F5F5F5F5F5
310
F5F5F5F5E2F5F5F5E2E2EFF5F5F5E2F5F5F5F5F5F5F5F5F5F5F5F5F5F5F5F5E2F5F5F5F5F5F5F5F5F5F5F5F5F5F5F5F5F5F5F5F5F5F5F5F5F5F5F5F5F5F5F5F5F5F5F5F5F5F5F5F5F5F5F5F5F5F5F5F5F5F5F5F5F5F5F5F5F5F5F5F5F5F5F5F5F5F5F5F5F5F5F5F5F5F5F5F5F5F5F5F5F5F5F5F5F5F5F5F5F5F5F5F5F5F5F5
310
F5F5F5F5F5F5F5F5F5F5F5F5F5F5F5F5F5F5F5F5F5F5F5F5F5F5F5F5F5F5F5F5F5F5F5F5F5F5F5F5E2F5F5F5F5F5F5F5F5F5F5F5F5F5F5F5F5E2F5F5F5E2E2EFF5F5F5F5F5F5F5F5F5F5F5F5F5F5F5F5F5F5F5F5E2F5F5F5F5F5F5F5F5F5F5F5F5F5F5F5F5F5F5F5F5F5F5F5F5F5F5F5F5F5F5F5F5F5F5F5F5F5F5F5F5F5F5
310
F5F5F5F5F5F5F5F5F5F5F5F5F5F5F5F5F5F5F5F5F5F5F5F5F5F5F5F5F5F5F5F5F5F5F5F5F5F5F5F5F5F5F5F5F5F5F5F5F5F5F5F5F5F5F5F5F5F5F5F5F5F5F5F5F5F5F5F5F5F5F5F5F5F5F5F5F5F5F5F5F5F5F5F5F5F5F5F5F5F5F5F5F5E2F5F5F5F5F5F5F5F5F5F5F5F5F5F5F5F5F5F5F5F5E2E2EFF5F5F5F5F5F5F5F5F5F5
310
F5F5F5F5F5F5F5F5F5F5E2F5F5F5F5F5F5F5F5F5F5F5F5F5F5F5F5F5F5F5F5F5F5F5F5F5F5F5F5F5F5F5F5F5F5F5F5F5F5F5F5F5F5F5F5F5F5F5F5F5F5F5F5F5F5F5F5F5F5F5F5F5F5F5F5F5F5F5F5F5F5F5F5F5F5F5F5F5F5F5F5F5F5F5F5F5F5F5F5F5F5F5F5F5F5F5F5F5F5F5F5F5F5F5F5F5F5F5F5F5F5F5F5F5F5F5F5
310
F5F5F5F5F5F5F5F5F5F5F5F5F5F5F5F5F5F5F5E2F5F5F5F5F5F5F5F5F5F5F5F5F5F5F5F5F5F5F5F5E2E2EFF5F5F5F5F5F5F5F5F5F5F5F5F5F5F5F5F5F5F5F5E2F5F5F5F5F5F5F5F5F5F5F5F5F5F5F5F5F5F5F5F5F5F5F5F5F5F5F5F5F5F5F5F5F5F5F5F5F5F5F5F5F5F5F5F5F5F5F5F5F5F5F5F5F5F5F5F5F5F5F5F5F5F5F5
310
F5F5F5F5F5F5F5F5F5F5F5F5F5F5F5F5F5F5F5F5F5F5F5F5F5F5F5F5F5F5F5F5F5F5F5F5F5F5F5F5F5F5F5F5F5F5F5F5F5F5F5F5F5F5F5F5F5F5F5F5F5F5F5F5F5F5F5F5F5F5F5F5E2F5F5F5F5F5F5F5F5F5F5F5F5F5F5F5F5F5F5F5F5E2E2EFF5F5F5F5F5F5F5F5F5F5F5F5F5F5F5F5F5F5F5F5E2F5F5F5F5F5F5F5F5F5F5
310
F5F5F5F5F5F5F5F5F5F5F5F5F5F5F5F5F5F5F5F5F5F5F5F5F5F5F5F5F5F5F5F5F5F5F5F5F5F5F5F5F5F5F5F5F5F5F5F5F5F5F5F5F5F5F5F5F5F5F5F5F5F5F5F5F5F5F5F5F5F5F5F5F5F5F5F5F5F5F5F5F5F5F5F5F5F5F5F5F5F5F5F5F5F5F5F5F5F5F5F5F5F5F5F5F5F5F5F5F5F5F5F5F5F5F5F5F5F5F5F5F5F5F5F5F5E2F5
310
F5F5F5F5F5F5F5F5F5F5F5F5F5F5F5F5F5F5F5E2E2EFF5F5F5F5F5F5F5F5F5F5F5F5F5F5F5F5F5F5F5F5E2F5F5F5F5F5F5F5F5F5F5F5F5F5F5F5F5F5F5F5F5F5F5F5F5F5F5F5F5F5F5F5F5F5F5F5F5F5F5F5F5F5F5F5F5F5F5F5F5F5F5F5F5F5F5F5F5F5F5F5F5F5F5F5F5F5F5F5F5F5F5F5F5F5F5F5F5F5F5F5F5F5F5F5F5
310
F5F5F5F5F5F5F5F5F5F5F5F5F5F5F5F5F5F5F5F5F5F5F5F5F5F5F5F5F5F5F5F5F5F5F5F5F5F5F5F5F5F5F5F5F5F5F5F5F5F5F5E2F5F5F5F5F5F5F5F5F5F5F5F5F5F5F5F5F5F5F5F5E2E2EFF5F5F5F5F5F5F5F5F5F5F5F5F5F5F5F5F5F5F5F5E2F5F5F5F5F5F5F5F5F5F5F5F5F5F5F5F5F5F5F5F5F5F5F5F5F5F5F5F5F5F5F5
310
F5F5F5F5F5F5F5F5F5F5F5F5F5F5F5F5F5F5F5F5F5F5F5F5F5F5F5F5F5F5F5F5F5F5F5F5F5F5F5F5F5F5F5F5F5F5F5F5F5F5F5F5F5F5F5F5F5F5F5F5F5F5F5F5F5F5F5F5F5F5F5F5F5F5F5F5F5F5F5F5F5F5F5F5F5F5F5F5F5F5F5F5F5F5F5F5F5F5F5F5F5F5F5F5E2F5F5F5F5F5F5F5F5F5F5F5F5F5F5F5F5F5F5F5F5E2E2
310
EFF5F5F5F5F5F5F5F5F5F5F5F5F5F5F5F5F5F5F5F5E2F5F5F5F5F5F5F5F5F5F5F5F5F5F5F5F5F5F5F5F5F5F5F5F5F5F5F5F5F5F5F5F5F5F5F5F5F5F5F5F5F5F5F5F5F5F5F5F5F5F5F5F5F5F5F5F5F5F5F5F5F5F5F5F5F5F5F5F5F5F5F5F5F5F5F5F5F5F5F5F5F5F5F5F5F5F5F5F5F5F5F5F5F5F5F5F5F5F5F5F5F5F5F5F5F5
310
F5F5F5F5F5F5F5F5F5F5F5F5F5F5F5F5F5F5F5F5F5F5F5F5F5F5F5F5F5F5E2F5F5F5F5F5F5F5F5F5F5F5F5F5F5F5F5F5F5F5F5E2E2EFF5F5F5F5F5F5F5F5F5F5F5F5F5F5F5F5F5F5F5F5E2F5F5F5F5F5F5F5F5F5F5F5F5F5F5F5F5F5F5F5F5F5F5F5F5F5F5F5F5F5F5F5F5F5F5F5F5F5F5F5F5F5F5F5F5F5F5F5F5F5F5F5F5
310
F5F5F5F5F5F5F5F5F5F5F5F5F5F5F5F5F5F5F5F5F5F5F5F5F5F5F5F5F5F5F5F5F5F5F5F5F5F5F5F5F5F5F5F5F5F5F5F5F5F5F5F5F5F5F5F5F5F5F5F5F5F5F5F5F5F5F5F5F5F5F5F5F5F5F5F5F5F5F5F5F5F5F5E2F5F5F5F5F5F5F5F5F5F5F5F5F5F5F5F5F5F5F5F5E2E2EFF5F5F5F5F5F5F5F5F5F5F5F5F5F5F5F5F5F5F5F5
310
E2F5F5F5F5F5F5F5F5F5F5F5F5F5F5F5F5F5F5F5F5F5F5F5F5F5F5F5F5F5F5F5F5F5F5F5F5F5F5F5F5F5F5F5F5F5F5F5F5F5F5F5F5F5F5F5F5F5F5F5F5F5F5F5F5F5F5F5F5F5F5F5F5F5F5F5F5F5F5F5F5F5F5F5F5F5F5F5F5F5F5F5F5F5F5F5F5F5F5F5F5F5F5F5F5F5F5F5F5F5F5F5F5F5F5F5F5F5F5F5F5F5F5F5F5F5F5
310
F5F5F5F5F5F5F5F5F5E2F5F5F5F5F5F5F5F5F5F5F5F5F5F5F5F5F5F5F5F5E2E2EFF5F5F5E2F5F5F5F5F5F5F5F5F5F5F5F5F5F5F5F5E2F5F5F5F5F5F5F5F5F5F5F5F5F5F5F5F5F5F5F5F5F5F5F5F5F5F5F5F5F5F5F5F5F5F5F5F5F5F5F5F5F5F5F5F5F5F5F5F5F5F5F5F5F5F5F5F5F5F5F5F5F5F5F5F5F5F5F5F5F5F5F5F5F5
310
F5F5F5F5F5F5F5F5F5F5F5F5F5F5F5F5F5F5F5F5F5F5F5F5F5F5F5F5F5F5F5F5F5F5F5F5F5F5F5F5F5F5F5F5F5F5F5F5F5F5F5F5F5F5F5F5F5F5F5F5F5F5E2F5F5F5F5F5F5F5F5F5F5F5F5F5F5F5F5E2F5F5F5E2E2EFF5F5F5E2F5F5F5F5F5F5F5F5F5F5F5F5F5F5F5F5E2F5F5F5F5F5F5F5F5F5F5F5F5F5F5F5F5F5F5F5F5
310
F5F5F5F5F5F5F5F5F5F5F5F5F5F5F5F5F5F5F5F5F5F5F5F5F5F5F5F5F5F5F5F5F5F5F5F5F5F5F5F5F5F5F5F5F5F5F5F5F5F5F5F5F5F5F5F5F5F5F5F5F5F5F5F5F5F5F5F5F5F5F5F5F5F5F5F5F5F5F5F5F5F5F5F5F5F5F5F5F5F5F5F5F5F5F5F5F5F5F5F5F5F5F5F5F5F5F5F5F5F5F5F5F5F5F5E2F5F5F5F5F5F5F5F5F5F5F5
310
F5F5F5F5F5E2F5F5F5E2E2EFF5F5F5E2F5F5F5F5F5F5F5F5F5F5F5F5F5F5F5F5E2F5F5F5F5F5F5F5F5F5F5F5F5F5F5F5F5F5F5F5F5F5F5F5F5F5F5F5F5F5F5F5F5F5F5F5F5F5F5F5F5F5F5F5F5F5F5F5F5F5F5F5F5F5F5F5F5F5F5F5F5F5F5F5F5F5F5F5F5F5F5F5F5F5F5F5F5F5F5F5F5F5F5F5F5F5F5F5F5F5F5F5F5F5F5
310
F5F5F5F5F5F5F5F5F5F5F5F5F5F5F5F5F5F5F5F5F5F5F5F5F5F5F5F5F5F5F5F5F5F5F5F5F5F5F5F5F5E2F5F5F5F5F5F5F5F5F5F5F5F5F5F5F5F5E2F5F5F5E2E2EFF5F5F5E2F5F5F5F5F5F5F5F5F5F5F5F5F5F5F5F5E2F5F5F5F5F5F5F5F5F5F5F5F5F5F5F5F5F5F5F5F5F5F5F5F5F5F5F5F5F5F5F5F5F5F5F5F5F5F5F5F5F5
310
F5F5F5F5F5F5F5F5F5F5F5F5F5F5F5F5F5F5F5F5F5F5F5F5F5F5F5F5F5F5F5F5F5F5F5F5F5F5F5F5F5F5F5F5F5F5F5F5F5F5F5F5F5F5F5F5F5F5F5F5F5F5F5F5F5F5F5F5F5F5F5F5F5F5F5F5F5F5F5F5F5F5F5F5F5F5F5F5F5F5F5F5F5F5E2F5F5F5F5F5F5F5F5F5F5F5F5F5F5F5F5E2F5F5F5E2E2EFF5F5F5E2F5F5F5F5F5
310
F5F5F5F5F5F5F5F5F5F5F5E2F5F5F5F5F5F5F5F5F5F5F5F5F5F5F5F5F5F5F5F5F5F5F5F5F5F5F5F5F5F5F5F5F5F5F5F5F5F5F5F5F5F5F5F5F5F5F5F5F5F5F5F5F5F5F5F5F5F5F5F5F5F5F5F5F5F5F5F5F5F5F5F5F5F5F5F5F5F5F5F5F5F5F5F5F5F5F5F5F5F5F5F5F5F5F5F5F5F5F5F5F5F5F5F5F5F5F5F5F5F5F5F5F5F5F5
310
F5F5F5F5F5F5F5F5F5F5F5F5F5F5F5F5F5F5F5F5E2F5F5F5F5F5F5F5F5F5F5F5F5F5F5F5F5E2F5F5F5E2E2EFF5F5F5E2F5F5F5F5F5F5F5F5F5F5F5F5F5F5F5F5E2F5F5F5F5F5F5F5F5F5F5F5F5F5F5F5F5F5F5F5F5F5F5F5F5F5F5F5F5F5F5F5F5F5F5F5F5F5F5F5F5F5F5F5F5F5F5F5F5F5F5F5F5F5F5F5F5F5F5F5F5F5F5
310
F5F5F5F5F5F5F5F5F5F5F5F5F5F5F5F5F5F5F5F5F5F5F5F5F5F5F5F5F5F5F5F5F5F5F5F5F5F5F5F5F5F5F5F5F5F5F5F5F5F5F5F5F5F5F5F5F5F5F5F5F5F5F5F5F5F5F5F5F5F5F5F5F5E2F5F5F5F5F5F5F5F5F5F5F5F5F5F5F5F5E2F5F5F5E2E2EFF5F5F5E2F5F5F5F5F5F5F5F5F5F5F5F5F5F5F5F5E2F5F5F5F5F5F5F5F5F5
310
F5F5F5F5F5F5F5F5F5F5F5F5F5F5F5F5F5F5F5F5F5F5F5F5F5F5F5F5F5F5F5F5F5F5F5F5F5F5F5F5F5F5F5F5F5F5F5F5F5F5F5F5F5F5F5F5F5F5F5F5F5F5F5F5F5F5F5F5F5F5F5F5F5F5F5F5F5F5F5F5F5F5F5F5F5F5F5F5F5F5F5F5F5F5F5F5F5F5F5F5F5F5F5F5F5F5F5F5F5F5F5F5F5F5F5F5F5F5F5F5F5F5F5F5F5F5E2
310
F5F5F5F5F5F5F5F5F5F5F5F5F5F5F5F5E2F5F5F5E2E2EFF5F5F5E2F5F5F5F5F5F5F5F5F5F5F5F5F5F5F5F5E2F5F5F5F5F5F5F5F5F5F5F5F5F5F5F5F5F5F5F5F5F5F5F5F5F5F5F5F5F5F5F5F5F5F5F5F5F5F5F5F5F5F5F5F5F5F5F5F5F5F5F5F5F5F5F5F5F5F5F5F5F5F5F5F5F5F5F5F5F5F5F5F5F5F5F5F5F5F5F5F5F5F5F5
310
F5F5F5F5F5F5F5F5F5F5F5F5F5F5F5F5F5F5F5F5F5F5F5F5F5F5F5F5F5F5F5F5F5F5F5F5F5F5F5F5F5F5F5F5F5F5F5F5F5F5F5F5E2F5F5F5F5F5F5F5F5F5F5F5F5F5F5F5F5E2F5F5F5E2E2EFF5F5F5E2F5F5F5F5F5F5F5F5F5F5F5F5F5F5F5F5E2F5F5F5F5F5F5F5F5F5F5F5F5F5F5F5F5F5F5F5F5F5F5F5F5F5F5F5F5F5F5
310
F5F5F5F5F5F5F5F5F5F5F5F5F5F5F5F5F5F5F5F5F5F5F5F5F5F5F5F5F5F5F5F5F5F5F5F5F5F5F5F5F5F5F5F5F5F5F5F5F5F5F5F5F5F5F5F5F5F5F5F5F5F5F5F5F5F5F5F5F5F5F5F5F5F5F5F5F5F5F5F5F5F5F5F5F5F5F5F5F5F5F5F5F5F5F5F5F5F5F5F5F5F5F5F5F5E2F5F5F5F5F5F5F5F5F5F5F5F5F5F5F5F5E2F5F5F5E2
310
E2EFF5F5F5E2F5F5F5F5F5F5F5F5F5F5F5F5F5F5F5F5E2F5F5F5F5F5F5F5F5F5F5F5F5F5F5F5F5F5F5F5F5F5F5F5F5F5F5F5F5F5F5F5F5F5F5F5F5F5F5F5F5F5F5F5F5F5F5F5F5F5F5F5F5F5F5F5F5F5F5F5F5F5F5F5F5F5F5F5F5F5F5F5F5F5F5F5F5F5F5F5F5F5F5F5F5F5F5F5F5F5F5F5F5F5F5F5F5F5F5F5F5F5F5F5F5
310
F5F5F5F5F5F5F5F5F5F5F5F5F5F5F5F5F5F5F5F5F5F5F5F5F5F5F5F5F5F5F5E2F5F5F5F5F5F5F5F5F5F5F5F5F5F5F5F5E2F5F5F5E2E2EFF5F5F5E2F5F5F5F5F5F5F5F5F5F5F5F5F5F5F5F5E2F5F5F5F5F5F5F5F5F5F5F5F5F5F5F5F5F5F5F5F5F5F5F5F5F5F5F5F5F5F5F5F5F5F5F5F5F5F5F5F5F5F5F5F5F5F5F5F5F5F5F5
310
F5F5F5F5F5F5F5F5F5F5F5F5F5F5F5F5F5F5F5F5F5F5F5F5F5F5F5F5F5F5F5F5F5F5F5F5F5F5F5F5F5F5F5F5F5F5F5F5F5F5F5F5F5F5F5F5F5F5F5F5F5F5F5F5F5F5F5F5F5F5F5F5F5F5F5F5F5F5F5F5F5F5F5F5E2F5F5F5F5F5F5F5F5F5F5F5F5F5F5F5F5E2F5F5F5E2E2EFF5F5F5E2F5F5F5F5F5F5F5F5F5F5F5F5F5F5F5
310
F5E2F5F5F5F5F5F5F5F5F5F5F5F5F5F5F5F5F5F5F5F5F5F5F5F5F5F5F5F5F5F5F5F5F5F5F5F5F5F5F5F5F5F5F5F5F5F5F5F5F5F5F5F5F5F5F5F5F5F5F5F5F5F5F5F5F5F5F5F5F5F5F5F5F5F5F5F5F5F5F5F5F5F5F5F5F5F5F5F5F5F5F5F5F5F5F5F5F5F5F5F5F5F5F5F5F5F5F5F5F5F5F5F5F5F5F5F5F5F5F5F5F5F5F5F5F5
310
F5F5F5F5F5F5F5F5F5F5E2F5F5F5F5F5F5F5F5F5F5F5F5F5F5F5F5E2F5F5F5E2E2EFF5F5F5E2F5F5F5F5F5F5F5F5F5F5F5F5F5F5F5F5E2F5F5F5F5F5F5F5F5F5F5F5F5F5F5F5F5F5F5F5F5F5F5F5F5F5F5F5F5F5F5F5F5F5F5F5F5F5F5F5F5F5F5F5F5F5F5F5F5F5F5F5F5F5F5F5F5F5F5F5F5F5F5F5F5F5F5F5F5F5F5F5F5
310
F5F5F5F5F5F5F5F5F5F5F5F5F5F5F5F5F5F5F5F5F5F5F5F5F5F5F5F5F5F5F5F5F5F5F5F5F5F5F5F5F5F5F5F5F5F5F5F5F5F5F5F5F5F5F5F5F5F5F5F5F5F5F5E2F5F5F5F5F5F5F5F5F5F5F5F5F5F5F5F5E2F5F5F5E2E2EFF5F5F5E2F5F5F5F5F5F5F5F5F5F5F5F5F5F5F5F5E2F5F5F5F5F5F5F5F5F5F5F5F5F5F5F5F5F5F5F5
310
F5F5F5F5F5F5F5F5F5F5F5F5F5F5F5F5F5F5F5F5F5F5F5F5F5F5F5F5F5F5F5F5F5F5F5F5F5F5F5F5F5F5F5F5F5F5F5F5F5F5F5F5F5F5F5F5F5F5F5F5F5F5F5F5F5F5F5F5F5F5F5F5F5F5F5F5F5F5F5F5F5F5F5F5F5F5F5F5F5F5F5F5F5F5F5F5F5F5F5F5F5F5F5F5F5F5F5F5F5F5F5F5F5F5F5F5E2F5F5F5F5F5F5F5F5F5F5
310
F5F5F5F5F5F5E2F5F5F5E2E2EFF5F5F5E2F5F5F5F5F5F5F5F5F5F5F5F5F5F5F5F5E2F5F5F5F5F5F5F5F5F5F5F5F5F5F5F5F5F5F5F5F5F5F5F5F5F5F5F5F5F5F5F5F5F5F5F5F5F5F5F5F5F5F5F5F5F5F5F5F5F5F5F5F5F5F5F5F5F5F5F5F5F5F5F5F5F5F5F5F5F5F5F5F5F5F5F5F5F5F5F5F5F5F5F5F5F5F5F5F5F5F5F5F5F5
310
F5F5F5F5F5F5F5F5F5F5F5F5F5F5F5F5F5F5F5F5F5F5F5F5F5F5F5F5F5F5F5F5F5F5F5F5F5F5F5F5F5F5E2F5F5F5F5F5F5F5F5F5F5F5F5F5F5F5F5E2F5F5F5E2E2EFF5F5F5E2F5F5F5F5F5F5F5F5F5F5F5F5F5F5F5F5E2F5F5F5F5F5F5F5F5F5F5F5F5F5F5F5F5F5F5F5F5F5F5F5F5F5F5F5F5F5F5F5F5F5F5F5F5F5F5F5F5
310
F5F5F5F5F5F5F5F5F5F5F5F5F5F5F5F5F5F5F5F5F5F5F5F5F5F5F5F5F5F5F5F5F5F5F5F5F5F5F5F5F5F5F5F5F5F5F5F5F5F5F5F5F5F5F5F5F5F5F5F5F5F5F5F5F5F5F5F5F5F5F5F5F5F5F5F5F5F5F5F5F5F5F5F5F5F5F5F5F5F5F5F5F5F5F5E2F5F5F5F5F5F5F5F5F5F5F5F5F5F5F5F5E2F5F5F5E2E2EFF5F5F5E2F5F5F5F5
310
F5F5F5F5F5F5F5F5F5F5F5F5E2F5F5F5F5F5F5F5F5F5F5F5F5F5F5F5F5F5F5F5F5F5F5F5F5F5F5F5F5F5F5F5F5F5F5F5F5F5F5F5F5F5F5F5F5F5F5F5F5F5F5F5F5F5F5F5F5F5F5F5F5F5F5F5F5F5F5F5F5F5F5F5F5F5F5F5F5F5F5F5F5F5F5F5F5F5F5F5F5F5F5F5F5F5F5F5F5F5F5F5F5F5F5F5F5F5F5F5F5F5F5F5F5F5F5
310
F5F5F5F5F5F5F5F5F5F5F5F5F5F5F5F5F5F5F5F5F5E2F5F5F5F5F5F5F5F5F5F5F5F5F5F5F5F5E2F5F5F5E2E2EFF5F5F5F5F5F5F5F5F5F5F5F5F5F5F5F5F5F5F5F5E2F5F5F5F5F5F5F5F5F5F5F5F5F5F5F5F5F5F5F5F5F5F5F5F5F5F5F5F5F5F5F5F5F5F5F5F5F5F5F5F5F5F5F5F5F5F5F5F5F5F5F5F5F5F5F5F5F5F5F5F5F5
310
F5F5F5F5F5F5F5F5F5F5F5F5F5F5F5F5F5F5F5F5F5F5F5F5F5F5F5F5F5F5F5F5F5F5F5F5F5F5F5F5F5F5F5F5F5F5F5F5F5F5F5F5F5F5F5F5F5F5F5F5F5F5F5F5F5F5F5F5F5F5F5F5F5F5E2F5F5F5F5F5F5F5F5F5F5F5F5F5F5F5F5F5F5F5F5E2E2EFF5F5F5F5F5F5F5F5F5F5F5F5F5F5F5F5F5F5F5F5E2F5F5F5F5F5F5F5F5
310
F5F5F5F5F5F5F5F5F5F5F5F5F5F5F5F5F5F5F5F5F5F5F5F5F5F5F5F5F5F5F5F5F5F5F5F5F5F5F5F5F5F5F5F5F5F5F5F5F5F5F5F5F5F5F5F5F5F5F5F5F5F5F5F5F5F5F5F5F5F5F5F5F5F5F5F5F5F5F5F5F5F5F5F5F5F5F5F5F5F5F5F5F5F5F5F5F5F5F5F5F5F5F5F5F5F5F5F5F5F5F5F5F5F5F5F5F5F5F5F5F5F5F5F5F5F5F5
310
E2F5F5F5F5F5F5F5F5F5F5F5F5F5F5F5F5F5F5F5F5E2E2EFF5F5F5F5F5F5F5F5F5F5F5F5F5F5F5F5F5F5F5F5E2F5F5F5F5F5F5F5F5F5F5F5F5F5F5F5F5F5F5F5F5F5F5F5F5F5F5F5F5F5F5F5F5F5F5F5F5F5F5F5F5F5F5F5F5F5F5F5F5F5F5F5F5F5F5F5F5F5F5F5F5F5F5F5F5F5F5F5F5F5F5F5F5F5F5F5F5F5F5F5F5F5F5
310
F5F5F5F5F5F5F5F5F5F5F5F5F5F5F5F5F5F5F5F5F5F5F5F5F5F5F5F5F5F5F5F5F5F5F5F5F5F5F5F5F5F5F5F5F5F5F5F5F5F5F5F5F5E2F5F5F5F5F5F5F5F5F5F5F5F5F5F5F5F5F5F5F5F5E2E2EFF5F5F5F5F5F5F5F5F5F5F5F5F5F5F5F5F5F5F5F5E2F5F5F5F5F5F5F5F5F5F5F5F5F5F5F5F5F5F5F5F5F5F5F5F5F5F5F5F5F5
310
F5F5F5F5F5F5F5F5F5F5F5F5F5F5F5F5F5F5F5F5F5F5F5F5F5F5F5F5F5F5F5F5F5F5F5F5F5F5F5F5F5F5F5F5F5F5F5F5F5F5F5F5F5F5F5F5F5F5F5F5F5F5F5F5F5F5F5F5F5F5F5F5F5F5F5F5F5F5F5F5F5F5F5F5F5F5F5F5F5F5F5F5F5F5F5F5F5F5F5F5F5F5F5F5F5F5E2F5F5F5F5F5F5F5F5F5F5F5F5F5F5F5F5F5F5F5F5
310
E2E2EFF5F5F5F5F5F5F5F5F5F5F5F5F5F5F5F5F5F5F5F5E2F5F5F5F5F5F5F5F5F5F5F5F5F5F5F5F5F5F5F5F5F5F5F5F5F5F5F5F5F5F5F5F5F5F5F5F5F5F5F5F5F5F5F5F5F5F5F5F5F5F5F5F5F5F5F5F5F5F5F5F5F5F5F5F5F5F5F5F5F5F5F5F5F5F5F5F5F5F5F5F5F5F5F5F5F5F5F5F5F5F5F5F5F5F5F5F5F5F5F5F5F5F5F5
310
F5F5F5F5F5F5F5F5F5F5F5F5F5F5F5F5F5F5F5F5F5F5F5F5F5F5F5F5F5F5F5F5E2F5F5F5F5F5F5F5F5F5F5F5F5F5F5F5F5F5F5F5F5E2E2EFF5F5F5F5F5F5F5F5F5F5F5F5F5F5F5F5F5F5F5F5E2F5F5F5F5F5F5F5F5F5F5F5F5F5F5F5F5F5F5F5F5F5F5F5F5F5F5F5F5F5F5F5F5F5F5F5F5F5F5F5F5F5F5F5F5F5F5F5F5F5F5
310
F5F5F5F5F5F5F5F5F5F5F5F5F5F5F5F5F5F5F5F5F5F5F5F5F5F5F5F5F5F5F5F5F5F5F5F5F5F5F5F5F5F5F5F5F5F5F5F5F5F5F5F5F5F5F5F5F5F5F5F5F5F5F5F5F5F5F5F5F5F5F5F5F5F5F5F5F5F5F5F5F5F5F5F5F5E2F5F5F5F5F5F5F5F5F5F5F5F5F5F5F5F5F5F5F5F5E2E2EFF5F5F5F5F5F5F5F5F5F5F5F5F5F5F5F5F5F5
310
F5F5E2F5F5F5F5F5F5F5F5F5F5F5F5F5F5F5F5F5F5F5F5F5F5F5F5F5F5F5F5F5F5F5F5F5F5F5F5F5F5F5F5F5F5F5F5F5F5F5F5F5F5F5F5F5F5F5F5F5F5F5F5F5F5F5F5F5F5F5F5F5F5F5F5F5F5F5F5F5F5F5F5F5F5F5F5F5F5F5F5F5F5F5F5F5F5F5F5F5F5F5F5F5F5F5F5F5F5F5F5F5F5F5F5F5F5F5F5F5F5F5F5F5F5F5F5
310
F5F5F5F5F5F5F5F5F5F5F5E2F5F5F5F5F5F5F5F5F5F5F5F5F5F5F5F5F5F5F5F5E2E2EFF5F5F5F5F5F5F5F5F5F5F5F5F5F5F5F5F5F5F5F5E2F5F5F5F5F5F5F5F5F5F5F5F5F5F5F5F5F5F5F5F5F5F5F5F5F5F5F5F5F5F5F5F5F5F5F5F5F5F5F5F5F5F5F5F5F5F5F5F5F5F5F5F5F5F5F5F5F5F5F5F5F5F5F5F5F5F5F5F5F5F5F5
310
F5F5F5F5F5F5F5F5F5F5F5F5F5F5F5F5F5F5F5F5F5F5F5F5F5F5F5F5F5F5F5F5F5F5F5F5F5F5F5F5F5F5F5F5F5F5F5F5F5F5F5F5F5F5F5F5F5F5F5F5F5F5F5F5E2F5F5F5F5F5F5F5F5F5F5F5F5F5F5F5F5F5F5F5F5E2E2EFF5F5F5F5F5F5F5F5F5F5F5F5F5F5F5F5F5F5F5F5E2F5F5F5F5F5F5F5F5F5F5F5F5F5F5F5F5F5F5
310
F5F5F5F5F5F5F5F5F5F5F5F5F5F5F5F5F5F5F5F5F5F5F5F5F5F5F5F5F5F5F5F5F5F5F5F5F5F5F5F5F5F5F5F5F5F5F5F5F5F5F5F5F5F5F5F5F5F5F5F5F5F5F5F5F5F5F5F5F5F5F5F5F5F5F5F5F5F5F5F5F5F5F5F5F5F5F5F5F5F5F5F5F5F5F5F5F5F5F5F5F5F5F5F5F5F5F5F5F5F5F5F5F5F5F5F5F5E2F5F5F5F5F5F5F5F5F5
310
F5F5F5F5F5F5F5F5F5F5F5E2E2EFF5F5F5E2F5F5F5F5F5F5F5F5F5F5F5F5F5F5F5F5E2F5F5F5F5F5F5F5F5F5F5F5F5F5F5F5F5F5F5F5F5F5F5F5F5F5F5F5F5F5F5F5F5F5F5F5F5F5F5F5F5F5F5F5F5F5F5F5F5F5F5F5F5F5F5F5F5F5F5F5F5F5F5F5F5F5F5F5F5F5F5F5F5F5F5F5F5F5F5F5F5F5F5F5F5F5F5F5F5F5F5F5F5
310
F5F5F5F5F5F5F5F5F5F5F5F5F5F5F5F5F5F5F5F5F5F5F5F5F5F5F5F5F5F5F5F5F5F5F5F5F5F5F5F5F5F5F5E2F5F5F5F5F5F5F5F5F5F5F5F5F5F5F5F5E2F5F5F5E2E2EFF5F5F5E2F5F5F5F5F5F5F5F5F5F5F5F5F5F5F5F5E2F5F5F5F5F5F5F5F5F5F5F5F5F5F5F5F5F5F5F5F5F5F5F5F5F5F5F5F5F5F5F5F5F5F5F5F5F5F5F5
310
F5F5F5F5F5F5F5F5F5F5F5F5F5F5F5F5F5F5F5F5F5F5F5F5F5F5F5F5F5F5F5F5F5F5F5F5F5F5F5F5F5F5F5F5F5F5F5F5F5F5F5F5F5F5F5F5F5F5F5F5F5F5F5F5F5F5F5F5F5F5F5F5F5F5F5F5F5F5F5F5F5F5F5F5F5F5F5F5F5F5F5F5F5F5F5F5E2F5F5F5F5F5F5F5F5F5F5F5F5F5F5F5F5E2F5F5F5E2E2EFF5F5F5E2F5F5F5
310
F5F5F5F5F5F5F5F5F5F5F5F5F5E2F5F5F5F5F5F5F5F5F5F5F5F5F5F5F5F5F5F5F5F5F5F5F5F5F5F5F5F5F5F5F5F5F5F5F5F5F5F5F5F5F5F5F5F5F5F5F5F5F5F5F5F5F5F5F5F5F5F5F5F5F5F5F5F5F5F5F5F5F5F5F5F5F5F5F5F5F5F5F5F5F5F5F5F5F5F5F5F5F5F5F5F5F5F5F5F5F5F5F5F5F5F5F5F5F5F5F5F5F5F5F5F5F5
310
F5F5F5F5F5F5F5F5F5F5F5F5F5F5F5F5F5F5F5F5F5F5E2F5F5F5F5F5F5F5F5F5F5F5F5F5F5F5F5E2F5F5F5E2E2EFF5F5F5E2F5F5F5F5F5F5F5F5F5F5F5F5F5F5F5F5E2F5F5F5F5F5F5F5F5F5F5F5F5F5F5F5F5F5F5F5F5F5F5F5F5F5F5F5F5F5F5F5F5F5F5F5F5F5F5F5F5F5F5F5F5F5F5F5F5F5F5F5F5F5F5F5F5F5F5F5F5
310
F5F5F5F5F5F5F5F5F5F5F5F5F5F5F5F5F5F5F5F5F5F5F5F5F5F5F5F5F5F5F5F5F5F5F5F5F5F5F5F5F5F5F5F5F5F5F5F5F5F5F5F5F5F5F5F5F5F5F5F5F5F5F5F5F5F5F5F5F5F5F5F5F5F5F5E2F5F5F5F5F5F5F5F5F5F5F5F5F5F5F5F5E2F5F5F5E2E2EFF5F5F5E2F5F5F5F5F5F5F5F5F5F5F5F5F5F5F5F5E2F5F5F5F5F5F5F5
310
F5F5F5F5F5F5F5F5F5F5F5F5F5F5F5F5F5F5F5F5F5F5F5F5F5F5F5F5F5F5F5F5F5F5F5F5F5F5F5F5F5F5F5F5F5F5F5F5F5F5F5F5F5F5F5F5F5F5F5F5F5F5F5F5F5F5F5F5F5F5F5F5F5F5F5F5F5F5F5F5F5F5F5F5F5F5F5F5F5F5F5F5F5F5F5F5F5F5F5F5F5F5F5F5F5F5F5F5F5F5F5F5F5F5F5F5F5F5F5F5F5F5F5F5F5F5F5
310
F5E2F5F5F5F5F5F5F5F5F5F5F5F5F5F5F5F5E2F5F5F5E2E2EFF5F5F5E2F5F5F5F5F5F5F5F5F5F5F5F5F5F5F5F5E2F5F5F5F5F5F5F5F5F5F5F5F5F5F5F5F5F5F5F5F5F5F5F5F5F5F5F5F5F5F5F5F5F5F5F5F5F5F5F5F5F5F5F5F5F5F5F5F5F5F5F5F5F5F5F5F5F5F5F5F5F5F5F5F5F5F5F5F5F5F5F5F5F5F5F5F5F5F5F5F5F5
310
F5F5F5F5F5F5F5F5F5F5F5F5F5F5F5F5F5F5F5F5F5F5F5F5F5F5F5F5F5F5F5F5F5F5F5F5F5F5F5F5F5F5F5F5F5F5F5F5F5F5F5F5F5F5E2F5F5F5F5F5F5F5F5F5F5F5F5F5F5F5F5E2F5F5F5E2E2EFF5F5F5E2F5F5F5F5F5F5F5F5F5F5F5F5F5F5F5F5E2F5F5F5F5F5F5F5F5F5F5F5F5F5F5F5F5F5F5F5F5F5F5F5F5F5F5F5F5
310
F5F5F5F5F5F5F5F5F5F5F5F5F5F5F5F5F5F5F5F5F5F5F5F5F5F5F5F5F5F5F5F5F5F5F5F5F5F5F5F5F5F5F5F5F5F5F5F5F5F5F5F5F5F5F5F5F5F5F5F5F5F5F5F5F5F5F5F5F5F5F5F5F5F5F5F5F5F5F5F5F5F5F5F5F5F5F5F5F5F5F5F5F5F5F5F5F5F5F5F5F5F5F5F5F5F5F5E2F5F5F5F5F5F5F5F5F5F5F5F5F5F5F5F5E2F5F5
310
F5E2E2EFF5F5F5E2F5F5F5F5F5F5F5F5F5F5F5F5F5F5F5F5E2F5F5F5F5F5F5F5F5F5F5F5F5F5F5F5F5F5F5F5F5F5F5F5F5F5F5F5F5F5F5F5F5F5F5F5F5F5F5F5F5F5F5F5F5F5F5F5F5F5F5F5F5F5F5F5F5F5F5F5F5F5F5F5F5F5F5F5F5F5F5F5F5F5F5F5F5F5F5F5F5F5F5F5F5F5F5F5F5F5F5F5F5F5F5F5F5F5F5F5F5F5F5
310
F5F5F5F5F5F5F5F5F5F5F5F5F5F5F5F5F5F5F5F5F5F5F5F5F5F5F5F5F5F5F5F5F5E2F5F5F5F5F5F5F5F5F5F5F5F5F5F5F5F5E2F5F5F5E2E2EFF5F5F5E2F5F5F5F5F5F5F5F5F5F5F5F5F5F5F5F5E2F5F5F5F5F5F5F5F5F5F5F5F5F5F5F5F5F5F5F5F5F5F5F5F5F5F5F5F5F5F5F5F5F5F5F5F5F5F5F5F5F5F5F5F5F5F5F5F5F5
310
F5F5F5F5F5F5F5F5F5F5F5F5F5F5F5F5F5F5F5F5F5F5F5F5F5F5F5F5F5F5F5F5F5F5F5F5F5F5F5F5F5F5F5F5F5F5F5F5F5F5F5F5F5F5F5F5F5F5F5F5F5F5F5F5F5F5F5F5F5F5F5F5F5F5F5F5F5F5F5F5F5F5F5F5F5F5E2F5F5F5F5F5F5F5F5F5F5F5F5F5F5F5F5E2F5F5F5E2E2EFF5F5F5E2F5F5F5F5F5F5F5F5F5F5F5F5F5
310
F5F5F5E2F5F5F5F5F5F5F5F5F5F5F5F5F5F5F5F5F5F5F5F5F5F5F5F5F5F5F5F5F5F5F5F5F5F5F5F5F5F5F5F5F5F5F5F5F5F5F5F5F5F5F5F5F5F5F5F5F5F5F5F5F5F5F5F5F5F5F5F5F5F5F5F5F5F5F5F5F5F5F5F5F5F5F5F5F5F5F5F5F5F5F5F5F5F5F5F5F5F5F5F5F5F5F5F5F5F5F5F5F5F5F5F5F5F5F5F5F5F5F5F5F5F5F5
310
F5F5F5F5F5F5F5F5F5F5F5F5E2F5F5F5F5F5F5F5F5F5F5F5F5F5F5F5F5E2F5F5F5E2E2EFF5F5F5E2F5F5F5F5F5F5F5F5F5F5F5F5F5F5F5F5E2F5F5F5F5F5F5F5F5F5F5F5F5F5F5F5F5F5F5F5F5F5F5F5F5F5F5F5F5F5F5F5F5F5F5F5F5F5F5F5F5F5F5F5F5F5F5F5F5F5F5F5F5F5F5F5F5F5F5F5F5F5F5F5F5F5F5F5F5F5F5
310
F5F5F5F5F5F5F5F5F5F5F5F5F5F5F5F5F5F5F5F5F5F5F5F5F5F5F5F5F5F5F5F5F5F5F5F5F5F5F5F5F5F5F5F5F5F5F5F5F5F5F5F5F5F5F5F5F5F5F5F5F5F5F5F5F5E2F5F5F5F5F5F5F5F5F5F5F5F5F5F5F5F5E2F5F5F5E2E2EFF5F5F5E2F5F5F5F5F5F5F5F5F5F5F5F5F5F5F5F5E2F5F5F5F5F5F5F5F5F5F5F5F5F5F5F5F5F5
310
F5F5F5F5F5F5F5F5F5F5F5F5F5F5F5F5F5F5F5F5F5F5F5F5F5F5F5F5F5F5F5F5F5F5F5F5F5F5F5F5F5F5F5F5F5F5F5F5F5F5F5F5F5F5F5F5F5F5F5F5F5F5F5F5F5F5F5F5F5F5F5F5F5F5F5F5F5F5F5F5F5F5F5F5F5F5F5F5F5F5F5F5F5F5F5F5F5F5F5F5F5F5F5F5F5F5F5F5F5F5F5F5F5F5F5F5F5F5E2F5F5F5F5F5F5F5F5
310
F5F5F5F5F5F5F5F5E2F5F5F5E2E2EFF5F5F5E2F5F5F5F5F5F5F5F5F5F5F5F5F5F5F5F5E2F5F5F5F5F5F5F5F5F5F5F5F5F5F5F5F5F5F5F5F5F5F5F5F5F5F5F5F5F5F5F5F5F5F5F5F5F5F5F5F5F5F5F5F5F5F5F5F5F5F5F5F5F5F5F5F5F5F5F5F5F5F5F5F5F5F5F5F5F5F5F5F5F5F5F5F5F5F5F5F5F5F5F5F5F5F5F5F5F5F5F5
310
F5F5F5F5F5F5F5F5F5F5F5F5F5F5F5F5F5F5F5F5F5F5F5F5F5F5F5F5F5F5F5F5F5F5F5F5F5F5F5F5F5F5F5F5E2F5F5F5F5F5F5F5F5F5F5F5F5F5F5F5F5E2F5F5F5E2E2EFF5F5F5E2F5F5F5F5F5F5F5F5F5F5F5F5F5F5F5F5E2F5F5F5F5F5F5F5F5F5F5F5F5F5F5F5F5F5F5F5F5F5F5F5F5F5F5F5F5F5F5F5F5F5F5F5F5F5F5
310
F5F5F5F5F5F5F5F5F5F5F5F5F5F5F5F5F5F5F5F5F5F5F5F5F5F5F5F5F5F5F5F5F5F5F5F5F5F5F5F5F5F5F5F5F5F5F5F5F5F5F5F5F5F5F5F5F5F5F5F5F5F5F5F5F5F5F5F5F5F5F5F5F5F5F5F5F5F5F5F5F5F5F5F5F5F5F5F5F5F5F5F5F5F5F5F5F5E2F5F5F5F5F5F5F5F5F5F5F5F5F5F5F5F5E2F5F5F5E2E2EFF5F5F5E2F5F5
310
F5F5F5F5F5F5F5F5F5F5F5F5F5F5E2F5F5F5F5F5F5F5F5F5F5F5F5F5F5F5F5F5F5F5F5F5F5F5F5F5F5F5F5F5F5F5F5F5F5F5F5F5F5F5F5F5F5F5F5F5F5F5F5F5F5F5F5F5F5F5F5F5F5F5F5F5F5F5F5F5F5F5F5F5F5F5F5F5F5F5F5F5F5F5F5F5F5F5F5F5F5F5F5F5F5F5F5F5F5F5F5F5F5F5F5F5F5F5F5F5F5F5F5F5F5F5F5
310
F5F5F5F5F5F5F5F5F5F5F5F5F5F5F5F5F5F5F5F5F5F5F5E2F5F5F5F5F5F5F5F5F5F5F5F5F5F5F5F5E2F5F5F5E2E2EFF5F5F5E2F5F5F5F5F5F5F5F5F5F5F5F5F5F5F5F5E2F5F5F5F5F5F5F5F5F5F5F5F5F5F5F5F5F5F5F5F5F5F5F5F5F5F5F5F5F5F5F5F5F5F5F5F5F5F5F5F5F5F5F5F5F5F5F5F5F5F5F5F5F5F5F5F5F5F5F5
310
F5F5F5F5F5F5F5F5F5F5F5F5F5F5F5F5F5F5F5F5F5F5F5F5F5F5F5F5F5F5F5F5F5F5F5F5F5F5F5F5F5F5F5F5F5F5F5F5F5F5F5F5F5F5F5F5F5F5F5F5F5F5F5F5F5F5F5F5F5F5F5F5F5F5F5F5E2F5F5F5F5F5F5F5F5F5F5F5F5F5F5F5F5E2F5F5F5E2E2EFF5F5F5E2F5F5F5F5F5F5F5F5F5F5F5F5F5F5F5F5E2F5F5F5F5F5F5
310
F5F5F5F5F5F5F5F5F5F5F5F5F5F5F5F5F5F5F5F5F5F5F5F5F5F5F5F5F5F5F5F5F5F5F5F5F5F5F5F5F5F5F5F5F5F5F5F5F5F5F5F5F5F5F5F5F5F5F5F5F5F5F5F5F5F5F5F5F5F5F5F5F5F5F5F5F5F5F5F5F5F5F5F5F5F5F5F5F5F5F5F5F5F5F5F5F5F5F5F5F5F5F5F5F5F5F5F5F5F5F5F5F5F5F5F5F5F5F5F5F5F5F5F5F5F5F5
310
F5F5E2F5F5F5F5F5F5F5F5F5F5F5F5F5F5F5F5E2F5F5F5E2E2EFF5F5F5F5F5F5F5F5F5F5F5F5F5F5F5F5F5F5F5F5E2F5F5F5F5F5F5F5F5F5F5F5F5F5F5F5F5F5F5F5F5F5F5F5F5F5F5F5F5F5F5F5F5F5F5F5F5F5F5F5F5F5F5F5F5F5F5F5F5F5F5F5F5F5F5F5F5F5F5F5F5F5F5F5F5F5F5F5F5F5F5F5F5F5F5F5F5F5F5F5F5
310
F5F5F5F5F5F5F5F5F5F5F5F5F5F5F5F5F5F5F5F5F5F5F5F5F5F5F5F5F5F5F5F5F5F5F5F5F5F5F5F5F5F5F5F5F5F5F5F5F5F5F5F5F5F5F5E2F5F5F5F5F5F5F5F5F5F5F5F5F5F5F5F5F5F5F5F5E2E2EFF5F5F5F5F5F5F5F5F5F5F5F5F5F5F5F5F5F5F5F5E2F5F5F5F5F5F5F5F5F5F5F5F5F5F5F5F5F5F5F5F5F5F5F5F5F5F5F5
310
F5F5F5F5F5F5F5F5F5F5F5F5F5F5F5F5F5F5F5F5F5F5F5F5F5F5F5F5F5F5F5F5F5F5F5F5F5F5F5F5F5F5F5F5F5F5F5F5F5F5F5F5F5F5F5F5F5F5F5F5F5F5F5F5F5F5F5F5F5F5F5F5F5F5F5F5F5F5F5F5F5F5F5F5F5F5F5F5F5F5F5F5F5F5F5F5F5F5F5F5F5F5F5F5F5F5F5F5E2F5F5F5F5F5F5F5F5F5F5F5F5F5F5F5F5F5F5
310
F5F5E2E2EFF5F5F5F5F5F5F5F5F5F5F5F5F5F5F5F5F5F5F5F5E2F5F5F5F5F5F5F5F5F5F5F5F5F5F5F5F5F5F5F5F5F5F5F5F5F5F5F5F5F5F5F5F5F5F5F5F5F5F5F5F5F5F5F5F5F5F5F5F5F5F5F5F5F5F5F5F5F5F5F5F5F5F5F5F5F5F5F5F5F5F5F5F5F5F5F5F5F5F5F5F5F5F5F5F5F5F5F5F5F5F5F5F5F5F5F5F5F5F5F5F5F5
310
F5F5F5F5F5F5F5F5F5F5F5F5F5F5F5F5F5F5F5F5F5F5F5F5F5F5F5F5F5F5F5F5F5F5E2F5F5F5F5F5F5F5F5F5F5F5F5F5F5F5F5F5F5F5F5E2E2EFF5F5F5F5F5F5F5F5F5F5F5F5F5F5F5F5F5F5F5F5E2F5F5F5F5F5F5F5F5F5F5F5F5F5F5F5F5F5F5F5F5F5F5F5F5F5F5F5F5F5F5F5F5F5F5F5F5F5F5F5F5F5F5F5F5F5F5F5F5
310
F5F5F5F5F5F5F5F5F5F5F5F5F5F5F5F5F5F5F5F5F5F5F5F5F5F5F5F5F5F5F5F5F5F5F5F5F5F5F5F5F5F5F5F5F5F5F5F5F5F5F5F5F5F5F5F5F5F5F5F5F5F5F5F5F5F5F5F5F5F5F5F5F5F5F5F5F5F5F5F5F5F5F5F5F5F5F5E2F5F5F5F5F5F5F5F5F5F5F5F5F5F5F5F5F5F5F5F5E2E2EFF5F5F5F5F5F5F5F5F5F5F5F5F5F5F5F5
310
F5F5F5F5E2E2E2E2E2E2E2E2E2E2E2E2E2E2E2E2E2E2E2E2E2E2E2E2E2E2E2E2E2E2E2E2E2E2E2E2E2E2E2E2E2E2E2E2E2E2E2E2E2E2E2E2E2E2E2E2E2E2E2E2E2E2E2E2E2E2E2E2E2E2E2E2E2E2E2E2E2E2E2E2E2E2E2E2E2E2E2E2E2E2E2E2E2E2E2E2E2E2E2E2E2E2E2E2E2E2E2E2E2E2E2E2E2E2E2E2E2E2E2E2E2E2E2
310
E2E2E2E2E2E2E2E2E2E2E2E2E2E2F5F5F5F5F5F5F5F5F5F5F5F5F5F5F5F5F5F5F5F5E2E2EFF5F5F5F5F5F5F5F5F5F5F5F5F5F5F5F5F5F5F5F5F5F5F5F5F5F5F5F5F5F5F5F5F5F5F5F5F5F5F5F5F5F5F5F5F5F5F5F5F5F5F5F5F5F5F5F5F5F5F5F5F5F5F5F5F5F5F5F5F5F5F5F5F5F5F5F5F5F5F5F5F5F5F5F5F5F5F5F5F5F5
310
F5F5F5F5F5F5F5F5F5F5F5F5F5F5F5F5F5F5F5F5F5F5F5F5F5F5F5F5F5F5F5F5F5F5F5F5F5F5F5F5F5F5F5F5F5F5F5F5F5F5F5F5F5F5F5F5F5F5F5F5F5F5F5F5F5F5F5F5F5F5F5F5F5F5F5F5F5F5F5F5F5F5F5F5F5F5F5E2E2EFF5F5F5F5F5F5F5F5F5F5F5F5F5F5F5F5F5F5F5F5F5F5F5F5F5F5F5F5F5F5F5F5F5F5F5F5F5
310
F5F5F5F5F5F5F5F5F5F5F5F5F5F5F5F5F5F5F5F5F5F5F5F5F5F5F5F5F5F5F5F5F5F5F5F5F5F5F5F5F5F5F5F5F5F5F5F5F5F5F5F5F5F5F5F5F5F5F5F5F5F5F5F5F5F5F5F5F5F5F5F5F5F5F5F5F5F5F5F5F5F5F5F5F5F5F5F5F5F5F5F5F5F5F5F5F5F5F5F5F5F5F5F5F5F5F5F5F5F5F5F5F5F5F5F5F5F5F5F5F5F5F5F5F5F5F5
310
F5F5F5F5F5F5F5F5F5F5F5F5F5E2E2EFF5F5F5F5F5F5F5F5F5F5F5F5F5F5F5F5F5F5F5F5F5F5F5F5F5F5F5F5F5F5F5F5F5F5F5F5F5F5F5F5F5F5F5F5F5F5F5F5F5F5F5F5F5F5F5F5F5F5F5F5F5F5F5F5F5F5F5F5F5F5F5F5F5F5F5F5F5F5F5F5F5F5F5F5F5F5F5F5F5F5F5F5F5F5F5F5F5F5F5F5F5F5F5F5F5F5F5F5F5F5F5
310
F5F5F5F5F5F5F5F5F5F5F5F5F5F5F5F5F5F5F5F5F5F5F5F5F5F5F5F5F5F5F5F5F5F5F5F5F5F5F5F5F5F5F5F5F5F5F5F5F5F5F5F5F5F5F5F5F5F5F5F5F5F5F5F5F5F5E2E2EFF5F5F5F5F5F5F5F5F5F5F5F5F5F5F5F5F5F5F5F5F5F5F5F5F5F5F5F5F5F5F5F5F5F5F5F5F5F5F5F5F5F5F5F5F5F5F5F5F5F5F5F5F5F5F5F5F5F5
310
F5F5F5F5F5F5F5F5F5F5F5F5F5F5F5F5F5F5F5F5F5F5F5F5F5F5F5F5F5F5F5F5F5F5F5F5F5F5F5F5F5F5F5F5F5F5F5F5F5F5F5F5F5F5F5F5F5F5F5F5F5F5F5F5F5F5F5F5F5F5F5F5F5F5F5F5F5F5F5F5F5F5F5F5F5F5F5F5F5F5F5F5F5F5F5F5F5F5F5F5F5F5F5F5F5F5F5F5F5F5F5F5F5F5F5F5F5F5F5E2E2EFF5F5F5E2F5
310
F5F5F5F5F5F5F5F5F5F5F5F5F5F5F5F5F5F5F5F5F5F5F5F5F5F5F5F5F5F5F5F5F5F5F5F5F5F5F5F5F5F5F5F5F5F5F5F5F5F5F5F5F5F5F5F5F5F5F5F5F5F5F5F5F5F5F5F5F5F5F5F5F5F5F5F5F5F5F5F5F5F5F5F5F5F5F5F5F5F5F5F5F5F5F5F5F5F5F5F5F5F5F5F5F5F5F5F5F5F5F5F5F5F5F5F5F5F5F5F5F5F5F5F5F5F5F5
310
F5F5F5F5F5F5F5F5F5F5F5F5F5F5F5F5F5F5F5F5F5F5F5F5F5F5F5F5F5F5F5F5F5F5F5F5F5F5F5F5F5E2F5F5F5E2E2EFF5F5F5E2F5F5F5F5F5F5F5F5F5F5F5F5F5F5F5F5F5F5F5F5F5F5F5F5F5F5F5F5F5F5F5F5F5F5F5F5F5F5F5F5F5F5F5F5F5F5F5F5F5F5F5F5F5F5F5F5F5F5F5F5F5F5F5F5F5F5F5F5F5F5F5F5F5F5F5
310
F5F5F5F5F5F5F5F5F5F5F5F5F5F5F5F5F5F5F5F5F5F5F5F5F5F5F5F5F5F5F5F5F5F5F5F5F5F5F5F5F5F5F5F5F5F5F5F5F5F5F5F5F5F5F5F5F5F5F5F5F5F5F5F5F5F5F5F5F5F5F5F5F5F5F5F5F5F5F5F5F5F5F5F5F5F5F5F5F5F5F5F5F5F5E2F5F5F5E2E2EFF5F5F5E2F5F5F5F5F5F5F5F5F5F5F5F5F5F5F5F5F5F5F5F5F5F5
310
F5F5F5F5F5F5F5F5F5F5F5F5F5F5F5F5F5F5F5F5F5F5F5F5F5F5F5F5F5F5F5F5F5F5F5F5F5F5F5F5F5F5F5F5F5F5F5F5F5F5F5F5F5F5F5F5F5F5F5F5F5F5F5F5F5F5F5F5F5F5F5F5F5F5F5F5F5F5F5F5F5F5F5F5F5F5F5F5F5F5F5F5F5F5F5F5F5F5F5F5F5F5F5F5F5F5F5F5F5F5F5F5F5F5F5F5F5F5F5F5F5F5F5F5F5F5F5
310
F5F5F5F5F5F5F5F5F5F5F5F5F5F5F5F5F5F5F5F5E2F5F5F5E2E2EFF5F5F5E2F5F5F5F5F5F5F5F5F5F5F5F5F5F5F5F5F5F5F5F5F5F5F5F5F5F5F5F5F5F5F5F5F5F5F5F5F5F5F5F5F5F5F5F5F5F5F5F5F5F5F5F5F5F5F5F5F5F5F5F5F5F5F5F5F5F5F5F5F5F5F5F5F5F5F5F5F5F5F5F5F5F5F5F5F5F5F5F5F5F5F5F5F5F5F5F5
310
F5F5F5F5F5F5F5F5F5F5F5F5F5F5F5F5F5F5F5F5F5F5F5F5F5F5F5F5F5F5F5F5F5F5F5F5F5F5F5F5F5F5F5F5F5F5F5F5F5F5F5F5F5F5F5F5F5F5F5F5F5F5F5F5F5F5F5F5F5F5F5F5F5E2F5F5F5E2E2EFF5F5F5E2F5F5F5F5F5F5F5F5F5F5F5F5F5F5F5F5F5F5F5F5F5F5F5F5F5F5F5F5F5F5F5F5F5F5F5F5F5F5F5F5F5F5F5
310
F5F5F5F5F5F5F5F5F5F5F5F5F5F5F5F5F5F5F5F5F5F5F5F5F5F5F5F5F5F5F5F5F5F5F5F5F5F5F5F5F5F5F5F5F5F5F5F5F5F5F5F5F5F5F5F5F5F5F5F5F5F5F5F5F5F5F5F5F5F5F5F5F5F5F5F5F5F5F5F5F5F5F5F5F5F5F5F5F5F5F5F5F5F5F5F5F5F5F5F5F5F5F5F5F5F5F5F5F5F5F5F5F5F5F5F5F5F5F5F5F5F5F5F5F5F5E2
310
F5F5F5E2E2EFF5F5F5E2F5F5F5F5F5F5F5F5F5F5F5F5F5F5F5F5F5F5F5F5F5F5F5F5F5F5F5F5F5F5F5F5F5F5F5F5F5F5F5F5F5F5F5F5F5F5F5F5F5F5F5F5F5F5F5F5F5F5F5F5F5F5F5F5F5F5F5F5F5F5F5F5F5F5F5F5F5F5F5F5F5F5F5F5F5F5F5F5F5F5F5F5F5F5F5F5F5F5F5F5F5F5F5F5F5F5F5F5F5F5F5F5F5F5F5F5F5
310
F5F5F5F5F5F5F5F5F5F5F5F5F5F5F5F5F5F5F5F5F5F5F5F5F5F5F5F5F5F5F5F5F5F5F5F5F5F5F5F5F5F5F5F5F5F5F5F5F5F5F5F5E2F5F5F5E2E2EFF5F5F5E2F5F5F5F5F5F5F5F5F5F5F5F5F5F5F5F5F5F5F5F5F5F5F5F5F5F5F5F5F5F5F5F5F5F5F5F5F5F5F5F5F5F5F5F5F5F5F5F5F5F5F5F5F5F5F5F5F5F5F5F5F5F5F5F5
310
F5F5F5F5F5F5F5F5F5F5F5F5F5F5F5F5F5F5F5F5F5F5F5F5F5F5F5F5F5F5F5F5F5F5F5F5F5F5F5F5F5F5F5F5F5F5F5F5F5F5F5F5F5F5F5F5F5F5F5F5F5F5F5F5F5F5F5F5F5F5F5F5F5F5F5F5F5F5F5F5F5F5F5F5F5F5F5F5F5F5F5F5F5F5F5F5F5F5F5F5F5F5F5F5F5E2F5F5F5E2E2EFF5F5F5E2F5F5F5F5F5F5F5F5F5F5F5
310
F5F5F5F5F5F5F5F5F5F5F5F5F5F5F5F5F5F5F5F5F5F5F5F5F5F5F5F5F5F5F5F5F5F5F5F5F5F5F5F5F5F5F5F5F5F5F5F5F5F5F5F5F5F5F5F5F5F5F5F5F5F5F5F5F5F5F5F5F5F5F5F5F5F5F5F5F5F5F5F5F5F5F5F5F5F5F5F5F5F5F5F5F5F5F5F5F5F5F5F5F5F5F5F5F5F5F5F5F5F5F5F5F5F5F5F5F5F5F5F5F5F5F5F5F5F5F5
310
F5F5F5F5F5F5F5F5F5F5F5F5F5F5F5F5F5F5F5F5F5F5F5F5F5F5F5F5F5F5F5E2F5F5F5E2E2EFF5F5F5E2E2E2E2E2E2E2E2F5F5F5F5F5F5F5F5F5E2E2E2E2E2E2E2E2E2E2E2E2E2E2E2E2F5F5F5F5F5F5F5F5E2E2E2E2E2E2E2E2E2E2E2E2E2E2E2E2F5F5F5F5F5F5F5F5F5E2E2E2E2E2E2E2E2E2E2E2E2E2E2E2F5F5F5F5F5
310
F5F5F5F5E2E2E2E2E2E2E2E2E2E2E2E2E2E2E2F5F5F5F5F5F5F5F5F5E2E2E2E2E2E2E2E2E2E2E2E2E2E2E2E2F5F5F5F5F5F5F5F5E2E2E2E2E2E2E2E2E2E2E2E2E2E2E2E2F5F5F5F5F5F5F5F5F5E2E2E2E2E2E2E2E2F5F5F5E2E2EFF5F5F5F5F5F5F5F5F5F5F5F5F5F5F5F5F5F5F5F5F5F5F5F5F5F5F5F5F5F5F5F5F5F5F5F5
310
F5F5F5F5F5F5F5F5F5F5F5F5F5F5F5F5F5F5F5F5F5F5F5F5F5F5F5F5F5F5F5F5F5F5F5F5F5F5F5F5F5F5F5F5F5F5F5F5F5F5F5F5F5F5F5F5F5F5F5F5F5F5F5F5F5F5F5F5F5F5F5F5F5F5F5F5F5F5F5F5F5F5F5F5F5F5F5F5F5F5F5F5F5F5F5F5F5F5F5F5F5F5F5F5F5F5F5F5F5F5F5F5F5F5F5F5F5F5F5F5F5F5F5F5F5F5F5
310
F5F5F5F5F5F5F5F5F5F5F5F5F5F5E2E2EFF5F5F5F5F5F5F5F5F5F5F5F5F5F5F5F5F5F5F5F5F5F5F5F5F5F5F5F5F5F5F5F5F5F5F5F5F5F5F5F5F5F5F5F5F5F5F5F5F5F5F5F5F5F5F5F5F5F5F5F5F5F5F5F5F5F5F5F5F5F5F5F5F5F5F5F5F5F5F5F5F5F5F5F5F5F5F5F5F5F5F5F5F5F5F5F5F5F5F5F5F5F5F5F5F5F5F5F5F5F5
310
F5F5F5F5F5F5F5F5F5F5F5F5F5F5F5F5F5F5F5F5F5F5F5F5F5F5F5F5F5F5F5F5F5F5F5F5F5F5F5F5F5F5F5F5F5F5F5F5F5F5F5F5F5F5F5F5F5F5F5F5F5F5F5F5F5F5F5E2EFEFF5F5F5F5F5F5F5F5F5F5F5F5F5F5F5F5F5F5F5F5F5F5F5F5F5F5F5F5F5F5F5F5F5F5F5F5F5F5F5F5F5F5F5F5F5F5F5F5F5F5F5F5F5F5F5F5F5
310
F5F5F5F5F5F5F5F5F5F5F5F5F5F5F5F5F5F5F5F5F5F5F5F5F5F5F5F5F5F5F5F5F5F5F5F5F5F5F5F5F5F5F5F5F5F5F5F5F5F5F5F5F5F5F5F5F5F5F5F5F5F5F5F5F5F5F5F5F5F5F5F5F5F5F5F5F5F5F5F5F5F5F5F5F5F5F5F5F5F5F5F5F5F5F5F5F5F5F5F5F5F5F5F5F5F5F5F5F5F5F5F5F5F5F5F5F5F5F5F5E2EFEFE2E2E2E2
310
E2E2E2E2E2E2E2E2E2E2E2E2E2E2E2E2E2E2E2E2E2E2E2E2E2E2E2E2E2E2E2E2E2E2E2E2E2E2E2E2E2E2E2E2E2E2E2E2E2E2E2E2E2E2E2E2E2E2E2E2E2E2E2E2E2E2E2E2E2E2E2E2E2E2E2E2E2E2E2E2E2E2E2E2E2E2E2E2E2E2E2E2E2E2E2E2E2E2E2E2E2E2E2E2E2E2E2E2E2E2E2E2E2E2E2E2E2E2E2E2E2E2E2E2E2E2E2
310
E2E2E2E2E2E2E2E2E2E2E2E2E2E2E2E2E2E2E2E2E2E2E2E2E2E2E2E2E2E2E2E2E2E2E2E2E2E2E2E2E2E2E2E2E2E2E2EFEF
  0
XRECORD
  5
1D1C
102
{ACAD_REACTORS
330
1D1B
102
}
330
1D1B
100
AcDbXrecord
280
     1
270
     1
271
     1
  0
XRECORD
  5
1D1D
102
{ACAD_REACTORS
330
1D1B
102
}
330
1D1B
100
AcDbXrecord
280
     1
270
     1
271
     1
  0
XRECORD
  5
1D1E
102
{ACAD_REACTORS
330
1D1B
102
}
330
1D1B
100
AcDbXrecord
280
     1
270
     1
271
     1
  0
XRECORD
  5
1D1F
102
{ACAD_REACTORS
330
1D1B
102
}
330
1D1B
100
AcDbXrecord
280
     1
270
     1
271
     1
  0
XRECORD
  5
1D20
102
{ACAD_REACTORS
330
1D1B
102
}
330
1D1B
100
AcDbXrecord
280
     1
270
     1
271
     1
  0
XRECORD
  5
1D21
102
{ACAD_REACTORS
330
1D1B
102
}
330
1D1B
100
AcDbXrecord
280
     1
270
     1
271
     1
  0
XRECORD
  5
1D14
102
{ACAD_REACTORS
330
1D13
102
}
330
1D13
100
AcDbXrecord
280
     1
270
     1
271
     1
  0
XRECORD
  5
1D15
102
{ACAD_REACTORS
330
1D13
102
}
330
1D13
100
AcDbXrecord
280
     1
270
     1
271
     1
  0
XRECORD
  5
1D16
102
{ACAD_REACTORS
330
1D13
102
}
330
1D13
100
AcDbXrecord
280
     1
270
     1
271
     1
  0
XRECORD
  5
1D17
102
{ACAD_REACTORS
330
1D13
102
}
330
1D13
100
AcDbXrecord
280
     1
270
     1
271
     1
  0
XRECORD
  5
1D18
102
{ACAD_REACTORS
330
1D13
102
}
330
1D13
100
AcDbXrecord
280
     1
270
     1
271
     1
  0
XRECORD
  5
1D19
102
{ACAD_REACTORS
330
1D13
102
}
330
1D13
100
AcDbXrecord
280
     1
270
     1
271
     1
  0
XRECORD
  5
1CEA
102
{ACAD_REACTORS
330
1CE9
102
}
330
1CE9
100
AcDbXrecord
280
     1
270
     1
271
     1
  0
XRECORD
  5
1CEB
102
{ACAD_REACTORS
330
1CE9
102
}
330
1CE9
100
AcDbXrecord
280
     1
270
     1
271
     1
  0
XRECORD
  5
1CEC
102
{ACAD_REACTORS
330
1CE9
102
}
330
1CE9
100
AcDbXrecord
280
     1
270
     1
271
     1
  0
XRECORD
  5
1CED
102
{ACAD_REACTORS
330
1CE9
102
}
330
1CE9
100
AcDbXrecord
280
     1
270
     1
271
     1
  0
XRECORD
  5
1CEE
102
{ACAD_REACTORS
330
1CE9
102
}
330
1CE9
100
AcDbXrecord
280
     1
270
     1
271
     1
  0
XRECORD
  5
1CEF
102
{ACAD_REACTORS
330
1CE9
102
}
330
1CE9
100
AcDbXrecord
280
     1
270
     1
271
     1
  0
CELLSTYLEMAP
  5
1DC8
102
{ACAD_REACTORS
330
1D57
102
}
330
1D57
100
AcDbCellStyleMap
 90
        3
300
CELLSTYLE
  1
TABLEFORMAT_BEGIN
 90
        5
170
     1
 91
        0
 92
    32768
 62
   257
 93
        1
300
CONTENTFORMAT
  1
CONTENTFORMAT_BEGIN
 90
        0
 91
        0
 92
        4
 93
        0
300

 40
0.0
140
1.0
 94
        5
 62
     0
340
1CFF
144
0.25
309
CONTENTFORMAT_END
171
     1
301
MARGIN
  1
CELLMARGIN_BEGIN
 40
0.06
 40
0.06
 40
0.06
 40
0.06
 40
0.18
 40
0.18
309
CELLMARGIN_END
 94
        6
 95
        1
302
GRIDFORMAT
  1
GRIDFORMAT_BEGIN
 90
        0
 91
        1
 62
     0
 92
       -2
340
0
 93
        0
 40
0.045
309
GRIDFORMAT_END
 95
        2
302
GRIDFORMAT
  1
GRIDFORMAT_BEGIN
 90
        0
 91
        1
 62
     0
 92
       -2
340
0
 93
        0
 40
0.045
309
GRIDFORMAT_END
 95
        4
302
GRIDFORMAT
  1
GRIDFORMAT_BEGIN
 90
        0
 91
        1
 62
     0
 92
       -2
340
0
 93
        0
 40
0.045
309
GRIDFORMAT_END
 95
        8
302
GRIDFORMAT
  1
GRIDFORMAT_BEGIN
 90
        0
 91
        1
 62
     0
 92
       -2
340
0
 93
        0
 40
0.045
309
GRIDFORMAT_END
 95
       16
302
GRIDFORMAT
  1
GRIDFORMAT_BEGIN
 90
        0
 91
        1
 62
     0
 92
       -2
340
0
 93
        0
 40
0.045
309
GRIDFORMAT_END
 95
       32
302
GRIDFORMAT
  1
GRIDFORMAT_BEGIN
 90
        0
 91
        1
 62
     0
 92
       -2
340
0
 93
        0
 40
0.045
309
GRIDFORMAT_END
309
TABLEFORMAT_END
  1
CELLSTYLE_BEGIN
 90
        1
 91
        1
300
_TITLE
309
CELLSTYLE_END
300
CELLSTYLE
  1
TABLEFORMAT_BEGIN
 90
        5
170
     1
 91
        0
 92
        0
 62
   257
 93
        1
300
CONTENTFORMAT
  1
CONTENTFORMAT_BEGIN
 90
        0
 91
        0
 92
        4
 93
        0
300

 40
0.0
140
1.0
 94
        5
 62
     0
340
1CFF
144
0.18
309
CONTENTFORMAT_END
171
     1
301
MARGIN
  1
CELLMARGIN_BEGIN
 40
0.06
 40
0.06
 40
0.06
 40
0.06
 40
0.18
 40
0.18
309
CELLMARGIN_END
 94
        6
 95
        1
302
GRIDFORMAT
  1
GRIDFORMAT_BEGIN
 90
        0
 91
        1
 62
     0
 92
       -2
340
0
 93
        0
 40
0.045
309
GRIDFORMAT_END
 95
        2
302
GRIDFORMAT
  1
GRIDFORMAT_BEGIN
 90
        0
 91
        1
 62
     0
 92
       -2
340
0
 93
        0
 40
0.045
309
GRIDFORMAT_END
 95
        4
302
GRIDFORMAT
  1
GRIDFORMAT_BEGIN
 90
        0
 91
        1
 62
     0
 92
       -2
340
0
 93
        0
 40
0.045
309
GRIDFORMAT_END
 95
        8
302
GRIDFORMAT
  1
GRIDFORMAT_BEGIN
 90
        0
 91
        1
 62
     0
 92
       -2
340
0
 93
        0
 40
0.045
309
GRIDFORMAT_END
 95
       16
302
GRIDFORMAT
  1
GRIDFORMAT_BEGIN
 90
        0
 91
        1
 62
     0
 92
       -2
340
0
 93
        0
 40
0.045
309
GRIDFORMAT_END
 95
       32
302
GRIDFORMAT
  1
GRIDFORMAT_BEGIN
 90
        0
 91
        1
 62
     0
 92
       -2
340
0
 93
        0
 40
0.045
309
GRIDFORMAT_END
309
TABLEFORMAT_END
  1
CELLSTYLE_BEGIN
 90
        2
 91
        1
300
_HEADER
309
CELLSTYLE_END
300
CELLSTYLE
  1
TABLEFORMAT_BEGIN
 90
        5
170
     1
 91
        0
 92
        0
 62
   257
 93
        1
300
CONTENTFORMAT
  1
CONTENTFORMAT_BEGIN
 90
        0
 91
        0
 92
        4
 93
        0
300

 40
0.0
140
1.0
 94
        2
 62
     0
340
1CFF
144
0.18
309
CONTENTFORMAT_END
171
     1
301
MARGIN
  1
CELLMARGIN_BEGIN
 40
0.06
 40
0.06
 40
0.06
 40
0.06
 40
0.18
 40
0.18
309
CELLMARGIN_END
 94
        6
 95
        1
302
GRIDFORMAT
  1
GRIDFORMAT_BEGIN
 90
        0
 91
        1
 62
     0
 92
       -2
340
0
 93
        0
 40
0.045
309
GRIDFORMAT_END
 95
        2
302
GRIDFORMAT
  1
GRIDFORMAT_BEGIN
 90
        0
 91
        1
 62
     0
 92
       -2
340
0
 93
        0
 40
0.045
309
GRIDFORMAT_END
 95
        4
302
GRIDFORMAT
  1
GRIDFORMAT_BEGIN
 90
        0
 91
        1
 62
     0
 92
       -2
340
0
 93
        0
 40
0.045
309
GRIDFORMAT_END
 95
        8
302
GRIDFORMAT
  1
GRIDFORMAT_BEGIN
 90
        0
 91
        1
 62
     0
 92
       -2
340
0
 93
        0
 40
0.045
309
GRIDFORMAT_END
 95
       16
302
GRIDFORMAT
  1
GRIDFORMAT_BEGIN
 90
        0
 91
        1
 62
     0
 92
       -2
340
0
 93
        0
 40
0.045
309
GRIDFORMAT_END
 95
       32
302
GRIDFORMAT
  1
GRIDFORMAT_BEGIN
 90
        0
 91
        1
 62
     0
 92
       -2
340
0
 93
        0
 40
0.045
309
GRIDFORMAT_END
309
TABLEFORMAT_END
  1
CELLSTYLE_BEGIN
 90
        3
 91
        2
300
_DATA
309
CELLSTYLE_END
  0
XRECORD
  5
1DCB
102
{ACAD_REACTORS
330
1DCA
102
}
330
1DCA
100
AcDbXrecord
280
     1
102
RTVSPropertyOp0
 70
     1
102
RTVSPropertyOp1
 70
     1
102
RTVSPropertyOp2
 70
     1
102
RTVSPropertyOp3
 70
     1
102
RTVSPropertyOp4
 70
     1
102
RTVSPropertyOp5
 70
     1
102
RTVSPropertyOp6
 70
     1
102
RTVSPropertyOp7
 70
     1
102
RTVSPropertyOp8
 70
     1
102
RTVSPropertyOp9
 70
     1
102
RTVSPropertyOp10
 70
     1
102
RTVSPropertyOp11
 70
     1
102
RTVSPropertyOp12
 70
     1
102
RTVSPropertyOp13
 70
     1
102
RTVSPropertyOp14
 70
     1
102
RTVSPropertyOp15
 70
     1
102
RTVSPropertyOp16
 70
     1
102
RTVSPropertyOp17
 70
     1
102
RTVSPropertyOp18
 70
     1
102
RTVSPropertyOp19
 70
     1
102
RTVSPropertyOp20
 70
     1
102
RTVSPropertyOp21
 70
     1
102
RTVSPropertyOp22
 70
     1
102
RTVSPropertyOp23
 70
     1
102
RTVSPropertyOp24
 70
     1
102
RTVSPropertyOp25
 70
     1
102
RTVSPropertyOp26
 70
     1
102
RTVSPropertyOp27
 70
     1
  0
XRECORD
  5
1DDB
102
{ACAD_REACTORS
330
1DDA
102
}
330
1DDA
100
AcDbXrecord
280
     1
102
RTVSPropertyOp0
 70
     1
102
RTVSPropertyOp1
 70
     1
102
RTVSPropertyOp2
 70
     1
102
RTVSPropertyOp3
 70
     1
102
RTVSPropertyOp4
 70
     1
102
RTVSPropertyOp5
 70
     1
102
RTVSPropertyOp6
 70
     1
102
RTVSPropertyOp7
 70
     1
102
RTVSPropertyOp8
 70
     1
102
RTVSPropertyOp9
 70
     1
102
RTVSPropertyOp10
 70
     1
102
RTVSPropertyOp11
 70
     1
102
RTVSPropertyOp12
 70
     1
102
RTVSPropertyOp13
 70
     1
102
RTVSPropertyOp14
 70
     1
102
RTVSPropertyOp15
 70
     1
102
RTVSPropertyOp16
 70
     1
102
RTVSPropertyOp17
 70
     1
102
RTVSPropertyOp18
 70
     1
102
RTVSPropertyOp19
 70
     1
102
RTVSPropertyOp20
 70
     1
102
RTVSPropertyOp21
 70
     1
102
RTVSPropertyOp22
 70
     1
102
RTVSPropertyOp23
 70
     1
102
RTVSPropertyOp24
 70
     1
102
RTVSPropertyOp25
 70
     1
102
RTVSPropertyOp26
 70
     1
102
RTVSPropertyOp27
 70
     1
  0
XRECORD
  5
1DCF
102
{ACAD_REACTORS
330
1DCE
102
}
330
1DCE
100
AcDbXrecord
280
     1
102
RTVSPropertyOp0
 70
     1
102
RTVSPropertyOp1
 70
     1
102
RTVSPropertyOp2
 70
     1
102
RTVSPropertyOp3
 70
     1
102
RTVSPropertyOp4
 70
     1
102
RTVSPropertyOp5
 70
     1
102
RTVSPropertyOp6
 70
     1
102
RTVSPropertyOp7
 70
     1
102
RTVSPropertyOp8
 70
     1
102
RTVSPropertyOp9
 70
     1
102
RTVSPropertyOp10
 70
     1
102
RTVSPropertyOp11
 70
     1
102
RTVSPropertyOp12
 70
     1
102
RTVSPropertyOp13
 70
     1
102
RTVSPropertyOp14
 70
     1
102
RTVSPropertyOp15
 70
     1
102
RTVSPropertyOp16
 70
     1
102
RTVSPropertyOp17
 70
     1
102
RTVSPropertyOp18
 70
     1
102
RTVSPropertyOp19
 70
     1
102
RTVSPropertyOp20
 70
     1
102
RTVSPropertyOp21
 70
     1
102
RTVSPropertyOp22
 70
     1
102
RTVSPropertyOp23
 70
     1
102
RTVSPropertyOp24
 70
     1
102
RTVSPropertyOp25
 70
     1
102
RTVSPropertyOp26
 70
     1
102
RTVSPropertyOp27
 70
     1
  0
XRECORD
  5
1DD9
102
{ACAD_REACTORS
330
1DD8
102
}
330
1DD8
100
AcDbXrecord
280
     1
102
RTVSPropertyOp0
 70
     1
102
RTVSPropertyOp1
 70
     1
102
RTVSPropertyOp2
 70
     1
102
RTVSPropertyOp3
 70
     1
102
RTVSPropertyOp4
 70
     1
102
RTVSPropertyOp5
 70
     1
102
RTVSPropertyOp6
 70
     1
102
RTVSPropertyOp7
 70
     1
102
RTVSPropertyOp8
 70
     1
102
RTVSPropertyOp9
 70
     1
102
RTVSPropertyOp10
 70
     1
102
RTVSPropertyOp11
 70
     1
102
RTVSPropertyOp12
 70
     1
102
RTVSPropertyOp13
 70
     1
102
RTVSPropertyOp14
 70
     1
102
RTVSPropertyOp15
 70
     1
102
RTVSPropertyOp16
 70
     1
102
RTVSPropertyOp17
 70
     1
102
RTVSPropertyOp18
 70
     1
102
RTVSPropertyOp19
 70
     1
102
RTVSPropertyOp20
 70
     1
102
RTVSPropertyOp21
 70
     1
102
RTVSPropertyOp22
 70
     1
102
RTVSPropertyOp23
 70
     1
102
RTVSPropertyOp24
 70
     1
102
RTVSPropertyOp25
 70
     1
102
RTVSPropertyOp26
 70
     1
102
RTVSPropertyOp27
 70
     1
  0
XRECORD
  5
1DE1
102
{ACAD_REACTORS
330
1DE0
102
}
330
1DE0
100
AcDbXrecord
280
     1
102
RTVSPropertyOp0
 70
     1
102
RTVSPropertyOp1
 70
     1
102
RTVSPropertyOp2
 70
     1
102
RTVSPropertyOp3
 70
     1
102
RTVSPropertyOp4
 70
     1
102
RTVSPropertyOp5
 70
     1
102
RTVSPropertyOp6
 70
     1
102
RTVSPropertyOp7
 70
     1
102
RTVSPropertyOp8
 70
     1
102
RTVSPropertyOp9
 70
     1
102
RTVSPropertyOp10
 70
     1
102
RTVSPropertyOp11
 70
     1
102
RTVSPropertyOp12
 70
     1
102
RTVSPropertyOp13
 70
     1
102
RTVSPropertyOp14
 70
     1
102
RTVSPropertyOp15
 70
     1
102
RTVSPropertyOp16
 70
     1
102
RTVSPropertyOp17
 70
     1
102
RTVSPropertyOp18
 70
     1
102
RTVSPropertyOp19
 70
     1
102
RTVSPropertyOp20
 70
     1
102
RTVSPropertyOp21
 70
     1
102
RTVSPropertyOp22
 70
     1
102
RTVSPropertyOp23
 70
     1
102
RTVSPropertyOp24
 70
     1
102
RTVSPropertyOp25
 70
     1
102
RTVSPropertyOp26
 70
     1
102
RTVSPropertyOp27
 70
     1
  0
XRECORD
  5
1DE9
102
{ACAD_REACTORS
330
1DE8
102
}
330
1DE8
100
AcDbXrecord
280
     1
102
RTVSPropertyOp0
 70
     1
102
RTVSPropertyOp1
 70
     1
102
RTVSPropertyOp2
 70
     1
102
RTVSPropertyOp3
 70
     1
102
RTVSPropertyOp4
 70
     1
102
RTVSPropertyOp5
 70
     1
102
RTVSPropertyOp6
 70
     1
102
RTVSPropertyOp7
 70
     1
102
RTVSPropertyOp8
 70
     1
102
RTVSPropertyOp9
 70
     1
102
RTVSPropertyOp10
 70
     1
102
RTVSPropertyOp11
 70
     1
102
RTVSPropertyOp12
 70
     1
102
RTVSPropertyOp13
 70
     1
102
RTVSPropertyOp14
 70
     1
102
RTVSPropertyOp15
 70
     1
102
RTVSPropertyOp16
 70
     1
102
RTVSPropertyOp17
 70
     1
102
RTVSPropertyOp18
 70
     1
102
RTVSPropertyOp19
 70
     1
102
RTVSPropertyOp20
 70
     1
102
RTVSPropertyOp21
 70
     1
102
RTVSPropertyOp22
 70
     1
102
RTVSPropertyOp23
 70
     1
102
RTVSPropertyOp24
 70
     1
102
RTVSPropertyOp25
 70
     1
102
RTVSPropertyOp26
 70
     1
102
RTVSPropertyOp27
 70
     1
  0
XRECORD
  5
1DDD
102
{ACAD_REACTORS
330
1DDC
102
}
330
1DDC
100
AcDbXrecord
280
     1
102
RTVSPropertyOp0
 70
     1
102
RTVSPropertyOp1
 70
     1
102
RTVSPropertyOp2
 70
     1
102
RTVSPropertyOp3
 70
     1
102
RTVSPropertyOp4
 70
     1
102
RTVSPropertyOp5
 70
     1
102
RTVSPropertyOp6
 70
     1
102
RTVSPropertyOp7
 70
     1
102
RTVSPropertyOp8
 70
     1
102
RTVSPropertyOp9
 70
     1
102
RTVSPropertyOp10
 70
     1
102
RTVSPropertyOp11
 70
     1
102
RTVSPropertyOp12
 70
     1
102
RTVSPropertyOp13
 70
     1
102
RTVSPropertyOp14
 70
     1
102
RTVSPropertyOp15
 70
     1
102
RTVSPropertyOp16
 70
     1
102
RTVSPropertyOp17
 70
     1
102
RTVSPropertyOp18
 70
     1
102
RTVSPropertyOp19
 70
     1
102
RTVSPropertyOp20
 70
     1
102
RTVSPropertyOp21
 70
     1
102
RTVSPropertyOp22
 70
     1
102
RTVSPropertyOp23
 70
     1
102
RTVSPropertyOp24
 70
     1
102
RTVSPropertyOp25
 70
     1
102
RTVSPropertyOp26
 70
     1
102
RTVSPropertyOp27
 70
     1
  0
XRECORD
  5
1DDF
102
{ACAD_REACTORS
330
1DDE
102
}
330
1DDE
100
AcDbXrecord
280
     1
102
RTVSPropertyOp0
 70
     1
102
RTVSPropertyOp1
 70
     1
102
RTVSPropertyOp2
 70
     1
102
RTVSPropertyOp3
 70
     1
102
RTVSPropertyOp4
 70
     1
102
RTVSPropertyOp5
 70
     1
102
RTVSPropertyOp6
 70
     1
102
RTVSPropertyOp7
 70
     1
102
RTVSPropertyOp8
 70
     1
102
RTVSPropertyOp9
 70
     1
102
RTVSPropertyOp10
 70
     1
102
RTVSPropertyOp11
 70
     1
102
RTVSPropertyOp12
 70
     1
102
RTVSPropertyOp13
 70
     1
102
RTVSPropertyOp14
 70
     1
102
RTVSPropertyOp15
 70
     1
102
RTVSPropertyOp16
 70
     1
102
RTVSPropertyOp17
 70
     1
102
RTVSPropertyOp18
 70
     1
102
RTVSPropertyOp19
 70
     1
102
RTVSPropertyOp20
 70
     1
102
RTVSPropertyOp21
 70
     1
102
RTVSPropertyOp22
 70
     1
102
RTVSPropertyOp23
 70
     1
102
RTVSPropertyOp24
 70
     1
102
RTVSPropertyOp25
 70
     1
102
RTVSPropertyOp26
 70
     1
102
RTVSPropertyOp27
 70
     1
  0
XRECORD
  5
1DEF
102
{ACAD_REACTORS
330
1DEE
102
}
330
1DEE
100
AcDbXrecord
280
     1
102
RTVSPropertyOp0
 70
     0
102
RTVSPropertyOp1
 70
     0
102
RTVSPropertyOp2
 70
     0
102
RTVSPropertyOp3
 70
     0
102
RTVSPropertyOp4
 70
     0
102
RTVSPropertyOp5
 70
     0
102
RTVSPropertyOp6
 70
     0
102
RTVSPropertyOp7
 70
     0
102
RTVSPropertyOp8
 70
     0
102
RTVSPropertyOp9
 70
     0
102
RTVSPropertyOp10
 70
     0
102
RTVSPropertyOp11
 70
     0
102
RTVSPropertyOp12
 70
     0
102
RTVSPropertyOp13
 70
     0
102
RTVSPropertyOp14
 70
     2
102
RTVSPropertyOp15
 70
     0
102
RTVSPropertyOp16
 70
     0
102
RTVSPropertyOp17
 70
     0
102
RTVSPropertyOp18
 70
     0
102
RTVSPropertyOp19
 70
     0
102
RTVSPropertyOp20
 70
     0
102
RTVSPropertyOp21
 70
     0
102
RTVSPropertyOp22
 70
     0
102
RTVSPropertyOp23
 70
     0
102
RTVSPropertyOp24
 70
     0
102
RTVSPropertyOp25
 70
     0
102
RTVSPropertyOp26
 70
     0
102
RTVSPropertyOp27
 70
     0
  0
XRECORD
  5
1DE7
102
{ACAD_REACTORS
330
1DE6
102
}
330
1DE6
100
AcDbXrecord
280
     1
102
RTVSPropertyOp0
 70
     1
102
RTVSPropertyOp1
 70
     1
102
RTVSPropertyOp2
 70
     1
102
RTVSPropertyOp3
 70
     1
102
RTVSPropertyOp4
 70
     1
102
RTVSPropertyOp5
 70
     1
102
RTVSPropertyOp6
 70
     1
102
RTVSPropertyOp7
 70
     1
102
RTVSPropertyOp8
 70
     1
102
RTVSPropertyOp9
 70
     1
102
RTVSPropertyOp10
 70
     1
102
RTVSPropertyOp11
 70
     1
102
RTVSPropertyOp12
 70
     1
102
RTVSPropertyOp13
 70
     1
102
RTVSPropertyOp14
 70
     1
102
RTVSPropertyOp15
 70
     1
102
RTVSPropertyOp16
 70
     1
102
RTVSPropertyOp17
 70
     1
102
RTVSPropertyOp18
 70
     1
102
RTVSPropertyOp19
 70
     1
102
RTVSPropertyOp20
 70
     1
102
RTVSPropertyOp21
 70
     1
102
RTVSPropertyOp22
 70
     1
102
RTVSPropertyOp23
 70
     1
102
RTVSPropertyOp24
 70
     1
102
RTVSPropertyOp25
 70
     1
102
RTVSPropertyOp26
 70
     1
102
RTVSPropertyOp27
 70
     1
  0
XRECORD
  5
1DD1
102
{ACAD_REACTORS
330
1DD0
102
}
330
1DD0
100
AcDbXrecord
280
     1
102
RTVSPropertyOp0
 70
     1
102
RTVSPropertyOp1
 70
     1
102
RTVSPropertyOp2
 70
     1
102
RTVSPropertyOp3
 70
     1
102
RTVSPropertyOp4
 70
     1
102
RTVSPropertyOp5
 70
     1
102
RTVSPropertyOp6
 70
     1
102
RTVSPropertyOp7
 70
     1
102
RTVSPropertyOp8
 70
     1
102
RTVSPropertyOp9
 70
     1
102
RTVSPropertyOp10
 70
     1
102
RTVSPropertyOp11
 70
     1
102
RTVSPropertyOp12
 70
     1
102
RTVSPropertyOp13
 70
     1
102
RTVSPropertyOp14
 70
     1
102
RTVSPropertyOp15
 70
     1
102
RTVSPropertyOp16
 70
     1
102
RTVSPropertyOp17
 70
     1
102
RTVSPropertyOp18
 70
     1
102
RTVSPropertyOp19
 70
     1
102
RTVSPropertyOp20
 70
     1
102
RTVSPropertyOp21
 70
     1
102
RTVSPropertyOp22
 70
     1
102
RTVSPropertyOp23
 70
     1
102
RTVSPropertyOp24
 70
     1
102
RTVSPropertyOp25
 70
     1
102
RTVSPropertyOp26
 70
     1
102
RTVSPropertyOp27
 70
     1
  0
XRECORD
  5
1DD3
102
{ACAD_REACTORS
330
1DD2
102
}
330
1DD2
100
AcDbXrecord
280
     1
102
RTVSPropertyOp0
 70
     1
102
RTVSPropertyOp1
 70
     1
102
RTVSPropertyOp2
 70
     1
102
RTVSPropertyOp3
 70
     1
102
RTVSPropertyOp4
 70
     1
102
RTVSPropertyOp5
 70
     1
102
RTVSPropertyOp6
 70
     1
102
RTVSPropertyOp7
 70
     1
102
RTVSPropertyOp8
 70
     1
102
RTVSPropertyOp9
 70
     1
102
RTVSPropertyOp10
 70
     1
102
RTVSPropertyOp11
 70
     1
102
RTVSPropertyOp12
 70
     1
102
RTVSPropertyOp13
 70
     1
102
RTVSPropertyOp14
 70
     1
102
RTVSPropertyOp15
 70
     1
102
RTVSPropertyOp16
 70
     1
102
RTVSPropertyOp17
 70
     1
102
RTVSPropertyOp18
 70
     1
102
RTVSPropertyOp19
 70
     1
102
RTVSPropertyOp20
 70
     1
102
RTVSPropertyOp21
 70
     1
102
RTVSPropertyOp22
 70
     1
102
RTVSPropertyOp23
 70
     1
102
RTVSPropertyOp24
 70
     1
102
RTVSPropertyOp25
 70
     1
102
RTVSPropertyOp26
 70
     1
102
RTVSPropertyOp27
 70
     1
  0
XRECORD
  5
1DD5
102
{ACAD_REACTORS
330
1DD4
102
}
330
1DD4
100
AcDbXrecord
280
     1
102
RTVSPropertyOp0
 70
     1
102
RTVSPropertyOp1
 70
     1
102
RTVSPropertyOp2
 70
     1
102
RTVSPropertyOp3
 70
     1
102
RTVSPropertyOp4
 70
     1
102
RTVSPropertyOp5
 70
     1
102
RTVSPropertyOp6
 70
     1
102
RTVSPropertyOp7
 70
     1
102
RTVSPropertyOp8
 70
     1
102
RTVSPropertyOp9
 70
     1
102
RTVSPropertyOp10
 70
     1
102
RTVSPropertyOp11
 70
     1
102
RTVSPropertyOp12
 70
     1
102
RTVSPropertyOp13
 70
     1
102
RTVSPropertyOp14
 70
     1
102
RTVSPropertyOp15
 70
     1
102
RTVSPropertyOp16
 70
     1
102
RTVSPropertyOp17
 70
     1
102
RTVSPropertyOp18
 70
     1
102
RTVSPropertyOp19
 70
     1
102
RTVSPropertyOp20
 70
     1
102
RTVSPropertyOp21
 70
     1
102
RTVSPropertyOp22
 70
     1
102
RTVSPropertyOp23
 70
     1
102
RTVSPropertyOp24
 70
     1
102
RTVSPropertyOp25
 70
     1
102
RTVSPropertyOp26
 70
     1
102
RTVSPropertyOp27
 70
     1
  0
XRECORD
  5
1DD7
102
{ACAD_REACTORS
330
1DD6
102
}
330
1DD6
100
AcDbXrecord
280
     1
102
RTVSPropertyOp0
 70
     1
102
RTVSPropertyOp1
 70
     1
102
RTVSPropertyOp2
 70
     1
102
RTVSPropertyOp3
 70
     1
102
RTVSPropertyOp4
 70
     1
102
RTVSPropertyOp5
 70
     1
102
RTVSPropertyOp6
 70
     1
102
RTVSPropertyOp7
 70
     1
102
RTVSPropertyOp8
 70
     1
102
RTVSPropertyOp9
 70
     1
102
RTVSPropertyOp10
 70
     1
102
RTVSPropertyOp11
 70
     1
102
RTVSPropertyOp12
 70
     1
102
RTVSPropertyOp13
 70
     1
102
RTVSPropertyOp14
 70
     1
102
RTVSPropertyOp15
 70
     1
102
RTVSPropertyOp16
 70
     1
102
RTVSPropertyOp17
 70
     1
102
RTVSPropertyOp18
 70
     1
102
RTVSPropertyOp19
 70
     1
102
RTVSPropertyOp20
 70
     1
102
RTVSPropertyOp21
 70
     1
102
RTVSPropertyOp22
 70
     1
102
RTVSPropertyOp23
 70
     1
102
RTVSPropertyOp24
 70
     1
102
RTVSPropertyOp25
 70
     1
102
RTVSPropertyOp26
 70
     1
102
RTVSPropertyOp27
 70
     1
  0
XRECORD
  5
1DEB
102
{ACAD_REACTORS
330
1DEA
102
}
330
1DEA
100
AcDbXrecord
280
     1
102
RTVSPropertyOp0
 70
     0
102
RTVSPropertyOp1
 70
     0
102
RTVSPropertyOp2
 70
     0
102
RTVSPropertyOp3
 70
     0
102
RTVSPropertyOp4
 70
     0
102
RTVSPropertyOp5
 70
     0
102
RTVSPropertyOp6
 70
     0
102
RTVSPropertyOp7
 70
     0
102
RTVSPropertyOp8
 70
     0
102
RTVSPropertyOp9
 70
     0
102
RTVSPropertyOp10
 70
     0
102
RTVSPropertyOp11
 70
     0
102
RTVSPropertyOp12
 70
     0
102
RTVSPropertyOp13
 70
     0
102
RTVSPropertyOp14
 70
     2
102
RTVSPropertyOp15
 70
     0
102
RTVSPropertyOp16
 70
     0
102
RTVSPropertyOp17
 70
     0
102
RTVSPropertyOp18
 70
     0
102
RTVSPropertyOp19
 70
     0
102
RTVSPropertyOp20
 70
     0
102
RTVSPropertyOp21
 70
     0
102
RTVSPropertyOp22
 70
     0
102
RTVSPropertyOp23
 70
     0
102
RTVSPropertyOp24
 70
     0
102
RTVSPropertyOp25
 70
     0
102
RTVSPropertyOp26
 70
     0
102
RTVSPropertyOp27
 70
     0
  0
XRECORD
  5
1DE5
102
{ACAD_REACTORS
330
1DE4
102
}
330
1DE4
100
AcDbXrecord
280
     1
102
RTVSPropertyOp0
 70
     1
102
RTVSPropertyOp1
 70
     1
102
RTVSPropertyOp2
 70
     1
102
RTVSPropertyOp3
 70
     1
102
RTVSPropertyOp4
 70
     1
102
RTVSPropertyOp5
 70
     1
102
RTVSPropertyOp6
 70
     1
102
RTVSPropertyOp7
 70
     1
102
RTVSPropertyOp8
 70
     1
102
RTVSPropertyOp9
 70
     1
102
RTVSPropertyOp10
 70
     1
102
RTVSPropertyOp11
 70
     1
102
RTVSPropertyOp12
 70
     1
102
RTVSPropertyOp13
 70
     1
102
RTVSPropertyOp14
 70
     1
102
RTVSPropertyOp15
 70
     1
102
RTVSPropertyOp16
 70
     1
102
RTVSPropertyOp17
 70
     1
102
RTVSPropertyOp18
 70
     1
102
RTVSPropertyOp19
 70
     1
102
RTVSPropertyOp20
 70
     1
102
RTVSPropertyOp21
 70
     1
102
RTVSPropertyOp22
 70
     1
102
RTVSPropertyOp23
 70
     1
102
RTVSPropertyOp24
 70
     1
102
RTVSPropertyOp25
 70
     1
102
RTVSPropertyOp26
 70
     1
102
RTVSPropertyOp27
 70
     1
  0
XRECORD
  5
1DED
102
{ACAD_REACTORS
330
1DEC
102
}
330
1DEC
100
AcDbXrecord
280
     1
102
RTVSPropertyOp0
 70
     0
102
RTVSPropertyOp1
 70
     0
102
RTVSPropertyOp2
 70
     0
102
RTVSPropertyOp3
 70
     0
102
RTVSPropertyOp4
 70
     0
102
RTVSPropertyOp5
 70
     0
102
RTVSPropertyOp6
 70
     0
102
RTVSPropertyOp7
 70
     0
102
RTVSPropertyOp8
 70
     0
102
RTVSPropertyOp9
 70
     0
102
RTVSPropertyOp10
 70
     0
102
RTVSPropertyOp11
 70
     0
102
RTVSPropertyOp12
 70
     0
102
RTVSPropertyOp13
 70
     0
102
RTVSPropertyOp14
 70
     2
102
RTVSPropertyOp15
 70
     0
102
RTVSPropertyOp16
 70
     0
102
RTVSPropertyOp17
 70
     0
102
RTVSPropertyOp18
 70
     0
102
RTVSPropertyOp19
 70
     0
102
RTVSPropertyOp20
 70
     0
102
RTVSPropertyOp21
 70
     0
102
RTVSPropertyOp22
 70
     0
102
RTVSPropertyOp23
 70
     0
102
RTVSPropertyOp24
 70
     0
102
RTVSPropertyOp25
 70
     0
102
RTVSPropertyOp26
 70
     0
102
RTVSPropertyOp27
 70
     0
  0
XRECORD
  5
1DCD
102
{ACAD_REACTORS
330
1DCC
102
}
330
1DCC
100
AcDbXrecord
280
     1
102
RTVSPropertyOp0
 70
     1
102
RTVSPropertyOp1
 70
     1
102
RTVSPropertyOp2
 70
     1
102
RTVSPropertyOp3
 70
     1
102
RTVSPropertyOp4
 70
     1
102
RTVSPropertyOp5
 70
     1
102
RTVSPropertyOp6
 70
     1
102
RTVSPropertyOp7
 70
     1
102
RTVSPropertyOp8
 70
     1
102
RTVSPropertyOp9
 70
     1
102
RTVSPropertyOp10
 70
     1
102
RTVSPropertyOp11
 70
     1
102
RTVSPropertyOp12
 70
     1
102
RTVSPropertyOp13
 70
     1
102
RTVSPropertyOp14
 70
     1
102
RTVSPropertyOp15
 70
     1
102
RTVSPropertyOp16
 70
     1
102
RTVSPropertyOp17
 70
     1
102
RTVSPropertyOp18
 70
     1
102
RTVSPropertyOp19
 70
     1
102
RTVSPropertyOp20
 70
     1
102
RTVSPropertyOp21
 70
     1
102
RTVSPropertyOp22
 70
     1
102
RTVSPropertyOp23
 70
     1
102
RTVSPropertyOp24
 70
     1
102
RTVSPropertyOp25
 70
     1
102
RTVSPropertyOp26
 70
     1
102
RTVSPropertyOp27
 70
     1
  0
XRECORD
  5
1DE3
102
{ACAD_REACTORS
330
1DE2
102
}
330
1DE2
100
AcDbXrecord
280
     1
102
RTVSPropertyOp0
 70
     1
102
RTVSPropertyOp1
 70
     1
102
RTVSPropertyOp2
 70
     1
102
RTVSPropertyOp3
 70
     1
102
RTVSPropertyOp4
 70
     1
102
RTVSPropertyOp5
 70
     1
102
RTVSPropertyOp6
 70
     1
102
RTVSPropertyOp7
 70
     1
102
RTVSPropertyOp8
 70
     1
102
RTVSPropertyOp9
 70
     1
102
RTVSPropertyOp10
 70
     1
102
RTVSPropertyOp11
 70
     1
102
RTVSPropertyOp12
 70
     1
102
RTVSPropertyOp13
 70
     1
102
RTVSPropertyOp14
 70
     1
102
RTVSPropertyOp15
 70
     1
102
RTVSPropertyOp16
 70
     1
102
RTVSPropertyOp17
 70
     1
102
RTVSPropertyOp18
 70
     1
102
RTVSPropertyOp19
 70
     1
102
RTVSPropertyOp20
 70
     1
102
RTVSPropertyOp21
 70
     1
102
RTVSPropertyOp22
 70
     1
102
RTVSPropertyOp23
 70
     1
102
RTVSPropertyOp24
 70
     1
102
RTVSPropertyOp25
 70
     1
102
RTVSPropertyOp26
 70
     1
102
RTVSPropertyOp27
 70
     1
  0
ENDSEC
  0
EOF
