  0
SECTION
  2
HEADER
  9
$ACADVER
  1
AC1021
  9
$ACADMAINTVER
 70
    50
  9
$DWGCODEPAGE
  3
ANSI_1252
  9
$AUTHOR
  1
marcel
  9
$LASTSAVEDBY
  1
marcel
  9
$INSBASE
 10
0.0
 20
0.0
 30
0.0
  9
$EXTMIN
 10
212223.114
 20
438516.532
 30
0.0
  9
$EXTMAX
 10
212834.551
 20
438923.025
 30
0.0
  9
$LIMMIN
 10
211060.375127
 20
437251.321127
  9
$LIMMAX
 10
213997.289873
 20
440188.235873
  9
$ORTHOMODE
 70
     0
  9
$REGENMODE
 70
     1
  9
$FILLMODE
 70
     1
  9
$QTEXTMODE
 70
     0
  9
$MIRRTEXT
 70
     0
  9
$LTSCALE
 40
1.0
  9
$ATTMODE
 70
     1
  9
$TEXTSIZE
 40
2.5
  9
$TRACEWID
 40
0.05
  9
$TEXTSTYLE
  7
Standard
  9
$CLAYER
  8
0
  9
$CELTYPE
  6
ByLayer
  9
$CECOLOR
 62
   256
  9
$CELTSCALE
 40
1.0
  9
$DISPSILH
 70
     0
  9
$DIMSCALE
 40
1.0
  9
$DIMASZ
 40
0.18
  9
$DIMEXO
 40
0.0625
  9
$DIMDLI
 40
0.38
  9
$DIMRND
 40
0.0
  9
$DIMDLE
 40
0.0
  9
$DIMEXE
 40
0.18
  9
$DIMTP
 40
0.0
  9
$DIMTM
 40
0.0
  9
$DIMTXT
 40
0.18
  9
$DIMCEN
 40
0.09
  9
$DIMTSZ
 40
0.0
  9
$DIMTOL
 70
     0
  9
$DIMLIM
 70
     0
  9
$DIMTIH
 70
     1
  9
$DIMTOH
 70
     1
  9
$DIMSE1
 70
     0
  9
$DIMSE2
 70
     0
  9
$DIMTAD
 70
     0
  9
$DIMZIN
 70
     0
  9
$DIMBLK
  1

  9
$DIMASO
 70
     1
  9
$DIMSHO
 70
     1
  9
$DIMPOST
  1

  9
$DIMAPOST
  1

  9
$DIMALT
 70
     0
  9
$DIMALTD
 70
     2
  9
$DIMALTF
 40
25.4
  9
$DIMLFAC
 40
1.0
  9
$DIMTOFL
 70
     0
  9
$DIMTVP
 40
0.0
  9
$DIMTIX
 70
     0
  9
$DIMSOXD
 70
     0
  9
$DIMSAH
 70
     0
  9
$DIMBLK1
  1

  9
$DIMBLK2
  1

  9
$DIMSTYLE
  2
Standard
  9
$DIMCLRD
 70
     0
  9
$DIMCLRE
 70
     0
  9
$DIMCLRT
 70
     0
  9
$DIMTFAC
 40
1.0
  9
$DIMGAP
 40
0.09
  9
$DIMJUST
 70
     0
  9
$DIMSD1
 70
     0
  9
$DIMSD2
 70
     0
  9
$DIMTOLJ
 70
     1
  9
$DIMTZIN
 70
     0
  9
$DIMALTZ
 70
     0
  9
$DIMALTTZ
 70
     0
  9
$DIMUPT
 70
     0
  9
$DIMDEC
 70
     4
  9
$DIMTDEC
 70
     4
  9
$DIMALTU
 70
     2
  9
$DIMALTTD
 70
     2
  9
$DIMTXSTY
  7
Standard
  9
$DIMAUNIT
 70
     0
  9
$DIMADEC
 70
     0
  9
$DIMALTRND
 40
0.0
  9
$DIMAZIN
 70
     0
  9
$DIMDSEP
 70
    46
  9
$DIMATFIT
 70
     3
  9
$DIMFRAC
 70
     0
  9
$DIMLDRBLK
  1

  9
$DIMLUNIT
 70
     2
  9
$DIMLWD
 70
    -2
  9
$DIMLWE
 70
    -2
  9
$DIMTMOVE
 70
     0
  9
$DIMFXL
 40
1.0
  9
$DIMFXLON
 70
     0
  9
$DIMJOGANG
 40
0.785398
  9
$DIMTFILL
 70
     0
  9
$DIMTFILLCLR
 70
     0
  9
$DIMARCSYM
 70
     0
  9
$DIMLTYPE
  6

  9
$DIMLTEX1
  6

  9
$DIMLTEX2
  6

  9
$LUNITS
 70
     2
  9
$LUPREC
 70
     3
  9
$SKETCHINC
 40
0.1
  9
$FILLETRAD
 40
0.0
  9
$AUNITS
 70
     0
  9
$AUPREC
 70
     4
  9
$MENU
  1
.
  9
$ELEVATION
 40
0.0
  9
$PELEVATION
 40
0.0
  9
$THICKNESS
 40
0.0
  9
$LIMCHECK
 70
     0
  9
$CHAMFERA
 40
0.0
  9
$CHAMFERB
 40
0.0
  9
$CHAMFERC
 40
0.0
  9
$CHAMFERD
 40
0.0
  9
$SKPOLY
 70
     0
  9
$TDCREATE
 40
2454144.861357350
  9
$TDUCREATE
 40
2454144.778024017
  9
$TDUPDATE
 40
2454144.862020359
  9
$TDUUPDATE
 40
2454144.778687026
  9
$TDINDWG
 40
0.0007115856
  9
$TDUSRTIMER
 40
0.0007114005
  9
$USRTIMER
 70
     1
  9
$ANGBASE
 50
0.0
  9
$ANGDIR
 70
     0
  9
$PDMODE
 70
     0
  9
$PDSIZE
 40
0.0
  9
$PLINEWID
 40
0.0
  9
$SPLFRAME
 70
     0
  9
$SPLINETYPE
 70
     6
  9
$SPLINESEGS
 70
     8
  9
$HANDSEED
  5
151E
  9
$SURFTAB1
 70
     6
  9
$SURFTAB2
 70
     6
  9
$SURFTYPE
 70
     6
  9
$SURFU
 70
     6
  9
$SURFV
 70
     6
  9
$UCSBASE
  2

  9
$UCSNAME
  2

  9
$UCSORG
 10
0.0
 20
0.0
 30
0.0
  9
$UCSXDIR
 10
1.0
 20
0.0
 30
0.0
  9
$UCSYDIR
 10
0.0
 20
1.0
 30
0.0
  9
$UCSORTHOREF
  2

  9
$UCSORTHOVIEW
 70
     0
  9
$UCSORGTOP
 10
0.0
 20
0.0
 30
0.0
  9
$UCSORGBOTTOM
 10
0.0
 20
0.0
 30
0.0
  9
$UCSORGLEFT
 10
0.0
 20
0.0
 30
0.0
  9
$UCSORGRIGHT
 10
0.0
 20
0.0
 30
0.0
  9
$UCSORGFRONT
 10
0.0
 20
0.0
 30
0.0
  9
$UCSORGBACK
 10
0.0
 20
0.0
 30
0.0
  9
$PUCSBASE
  2

  9
$PUCSNAME
  2

  9
$PUCSORG
 10
0.0
 20
0.0
 30
0.0
  9
$PUCSXDIR
 10
1.0
 20
0.0
 30
0.0
  9
$PUCSYDIR
 10
0.0
 20
1.0
 30
0.0
  9
$PUCSORTHOREF
  2

  9
$PUCSORTHOVIEW
 70
     0
  9
$PUCSORGTOP
 10
0.0
 20
0.0
 30
0.0
  9
$PUCSORGBOTTOM
 10
0.0
 20
0.0
 30
0.0
  9
$PUCSORGLEFT
 10
0.0
 20
0.0
 30
0.0
  9
$PUCSORGRIGHT
 10
0.0
 20
0.0
 30
0.0
  9
$PUCSORGFRONT
 10
0.0
 20
0.0
 30
0.0
  9
$PUCSORGBACK
 10
0.0
 20
0.0
 30
0.0
  9
$USERI1
 70
     0
  9
$USERI2
 70
     0
  9
$USERI3
 70
     0
  9
$USERI4
 70
     0
  9
$USERI5
 70
     0
  9
$USERR1
 40
0.0
  9
$USERR2
 40
0.0
  9
$USERR3
 40
0.0
  9
$USERR4
 40
0.0
  9
$USERR5
 40
0.0
  9
$WORLDVIEW
 70
     1
  9
$SHADEDGE
 70
     3
  9
$SHADEDIF
 70
    70
  9
$TILEMODE
 70
     1
  9
$MAXACTVP
 70
    64
  9
$PINSBASE
 10
0.0
 20
0.0
 30
0.0
  9
$PLIMCHECK
 70
     0
  9
$PEXTMIN
 10
1.049744
 20
0.799667
 30
-0.001526
  9
$PEXTMAX
 10
9.450623
 20
7.200577
 30
0.0
  9
$PLIMMIN
 10
-0.25
 20
-0.25
  9
$PLIMMAX
 10
10.75
 20
8.25
  9
$UNITMODE
 70
     0
  9
$VISRETAIN
 70
     1
  9
$PLINEGEN
 70
     0
  9
$PSLTSCALE
 70
     0
  9
$TREEDEPTH
 70
  3020
  9
$CMLSTYLE
  2
Standard
  9
$CMLJUST
 70
     0
  9
$CMLSCALE
 40
1.0
  9
$PROXYGRAPHICS
 70
     1
  9
$MEASUREMENT
 70
     0
  9
$CELWEIGHT
370
    -1
  9
$ENDCAPS
280
     0
  9
$JOINSTYLE
280
     0
  9
$LWDISPLAY
290
     1
  9
$INSUNITS
 70
     6
  9
$HYPERLINKBASE
  1

  9
$STYLESHEET
  1

  9
$XEDIT
290
     1
  9
$CEPSNTYPE
380
     0
  9
$PSTYLEMODE
290
     1
  9
$FINGERPRINTGUID
  2
{0593CD92-E3CB-4CC0-89BF-F7091113A94D}
  9
$VERSIONGUID
  2
{82C521FC-BF81-46B3-825E-420B6BD93A99}
  9
$EXTNAMES
290
     1
  9
$PSVPSCALE
 40
0.0
  9
$OLESTARTUP
290
     0
  9
$SORTENTS
280
   127
  9
$INDEXCTL
280
     0
  9
$HIDETEXT
280
     1
  9
$XCLIPFRAME
290
     0
  9
$HALOGAP
280
     0
  9
$OBSCOLOR
 70
   257
  9
$OBSLTYPE
280
     0
  9
$INTERSECTIONDISPLAY
280
     0
  9
$INTERSECTIONCOLOR
 70
   257
  9
$DIMASSOC
280
     1
  9
$PROJECTNAME
  1

  9
$CAMERADISPLAY
290
     0
  9
$LENSLENGTH
 40
50.0
  9
$CAMERAHEIGHT
 40
0.0
  9
$STEPSPERSEC
 40
2.0
  9
$STEPSIZE
 40
6.0
  9
$3DDWFPREC
 40
2.0
  9
$PSOLWIDTH
 40
0.25
  9
$PSOLHEIGHT
 40
4.0
  9
$LOFTANG1
 40
1.570796
  9
$LOFTANG2
 40
1.570796
  9
$LOFTMAG1
 40
0.0
  9
$LOFTMAG2
 40
0.0
  9
$LOFTPARAM
 70
     7
  9
$LOFTNORMALS
280
     1
  9
$LATITUDE
 40
37.795
  9
$LONGITUDE
 40
-122.394
  9
$NORTHDIRECTION
 40
0.0
  9
$TIMEZONE
 70
 -8000
  9
$LIGHTGLYPHDISPLAY
280
     1
  9
$TILEMODELIGHTSYNCH
280
     1
  9
$CMATERIAL
347
143B
  9
$SOLIDHIST
280
     1
  9
$SHOWHIST
280
     1
  9
$DWFFRAME
280
     2
  9
$DGNFRAME
280
     0
  9
$REALWORLDSCALE
290
     1
  9
$INTERFERECOLOR
 62
     1
  9
$INTERFEREOBJVS
345
1451
  9
$INTERFEREVPVS
346
1452
  9
$CSHADOW
280
     0
  9
$SHADOWPLANELOCATION
 40
0.0
  0
ENDSEC
  0
SECTION
  2
CLASSES
  0
CLASS
  1
ACDBDICTIONARYWDFLT
  2
AcDbDictionaryWithDefault
  3
ObjectDBX Classes
 90
        0
 91
        1
280
     0
281
     0
  0
CLASS
  1
DICTIONARYVAR
  2
AcDbDictionaryVar
  3
ObjectDBX Classes
 90
        0
 91
        7
280
     0
281
     0
  0
CLASS
  1
TABLESTYLE
  2
AcDbTableStyle
  3
ObjectDBX Classes
 90
     4095
 91
        1
280
     0
281
     0
  0
CLASS
  1
MATERIAL
  2
AcDbMaterial
  3
ObjectDBX Classes
 90
     1153
 91
        3
280
     0
281
     0
  0
CLASS
  1
VISUALSTYLE
  2
AcDbVisualStyle
  3
ObjectDBX Classes
 90
     4095
 91
       19
280
     0
281
     0
  0
CLASS
  1
SCALE
  2
AcDbScale
  3
ObjectDBX Classes
 90
     1153
 91
       33
280
     0
281
     0
  0
CLASS
  1
MLEADERSTYLE
  2
AcDbMLeaderStyle
  3
ACDB_MLEADERSTYLE_CLASS
 90
     4095
 91
        1
280
     0
281
     0
  0
CLASS
  1
CELLSTYLEMAP
  2
AcDbCellStyleMap
  3
ObjectDBX Classes
 90
     1152
 91
        2
280
     0
281
     0
  0
ENDSEC
  0
SECTION
  2
TABLES
  0
TABLE
  2
VPORT
  5
142F
330
0
100
AcDbSymbolTable
 70
     1
  0
VPORT
  5
49
330
142F
100
AcDbSymbolTableRecord
100
AcDbViewportTableRecord
  2
*ACTIVE
 70
     0
 10
0.0
 20
0.0
 11
1.0
 21
1.0
 12
212507.767844
 22
438703.307627
 13
0.0
 23
0.0
 14
1.0
 24
1.0
 15
5.0
 25
5.0
 16
0.0
 26
0.0
 36
1.0
 17
0.0
 27
0.0
 37
0.0
 40
146.106303
 41
2.045455
 42
50.0
 43
0.0
 44
0.0
 50
0.0
 51
0.0
 71
     0
 72
   100
 73
     1
 74
     0
 75
     0
 76
     0
 77
     0
 78
     1
281
     0
 65
     1
110
0.0
120
0.0
130
0.0
111
1.0
121
0.0
131
0.0
112
0.0
122
1.0
132
0.0
 79
     0
146
0.0
348
1431
 60
     3
 61
     5
292
     1
282
     1
141
0.0
142
0.0
 63
   250
421
  3355443
  0
ENDTAB
  0
TABLE
  2
LTYPE
  5
142A
330
0
100
AcDbSymbolTable
 70
     1
  0
LTYPE
  5
142B
330
142A
100
AcDbSymbolTableRecord
100
AcDbLinetypeTableRecord
  2
ByBlock
 70
     0
  3

 72
    65
 73
     0
 40
0.0
  0
LTYPE
  5
142C
330
142A
100
AcDbSymbolTableRecord
100
AcDbLinetypeTableRecord
  2
ByLayer
 70
     0
  3

 72
    65
 73
     0
 40
0.0
  0
LTYPE
  5
1419
330
142A
100
AcDbSymbolTableRecord
100
AcDbLinetypeTableRecord
  2
Continuous
 70
     0
  3
Solid line
 72
    65
 73
     0
 40
0.0
  0
ENDTAB
  0
TABLE
  2
LAYER
  5
1424
102
{ACAD_XDICTIONARY
360
1425
102
}
330
0
100
AcDbSymbolTable
 70
    23
  0
LAYER
  5
140C
330
1424
100
AcDbSymbolTableRecord
100
AcDbLayerTableRecord
  2
0
 70
     0
 62
     5
  6
Continuous
370
    40
390
140D
347
1410
  0
LAYER
  5
F6F
330
1424
100
AcDbSymbolTableRecord
100
AcDbLayerTableRecord
  2
Besluitgebied_X
 70
     0
 62
     7
  6
Continuous
370
     0
390
140D
347
1410
  0
LAYER
  5
FFD
330
1424
100
AcDbSymbolTableRecord
100
AcDbLayerTableRecord
  2
Omgevingsvergunning
 70
     0
 62
     7
  6
Continuous
370
     0
390
140D
347
1410
  0
LAYER
  5
10E8
330
1424
100
AcDbSymbolTableRecord
100
AcDbLayerTableRecord
  2
RoPlan_Legenda_Systeem_Level
 70
     0
 62
     7
  6
Continuous
370
     0
390
140D
347
1410
  0
LAYER
  5
10E9
330
1424
100
AcDbSymbolTableRecord
100
AcDbLayerTableRecord
  2
41
 70
     0
 62
   252
  6
Continuous
370
    13
390
140D
347
1410
  0
LAYER
  5
10EA
330
1424
100
AcDbSymbolTableRecord
100
AcDbLayerTableRecord
  2
Onderhoek
 70
     0
 62
     7
  6
Continuous
370
     0
390
140D
347
1410
  0
LAYER
  5
111F
330
1424
100
AcDbSymbolTableRecord
100
AcDbLayerTableRecord
  2
Kader
 70
     0
 62
     7
  6
Continuous
370
     0
390
140D
347
1410
  0
LAYER
  5
13F0
330
1424
100
AcDbSymbolTableRecord
100
AcDbLayerTableRecord
  2
B-XX-OG-WEG-GV
 70
     0
 62
     7
  6
Continuous
370
     0
390
140D
347
1410
  0
LAYER
  5
13F1
330
1424
100
AcDbSymbolTableRecord
100
AcDbLayerTableRecord
  2
B-XX-GR-GROENVOORZIENING-GV
 70
     0
 62
     7
  6
Continuous
370
     0
390
140D
347
1410
  0
LAYER
  5
13F2
330
1424
100
AcDbSymbolTableRecord
100
AcDbLayerTableRecord
  2
B-XX-VH-VERHARDING_OPEN-GV
 70
     0
 62
     7
  6
Continuous
370
     0
390
140D
347
1410
  0
LAYER
  5
13F3
330
1424
100
AcDbSymbolTableRecord
100
AcDbLayerTableRecord
  2
B-XX-VH-VERHARDING_HALFVERHARDING-GV
 70
     0
 62
     7
  6
Continuous
370
     0
390
140D
347
1410
  0
LAYER
  5
13F4
330
1424
100
AcDbSymbolTableRecord
100
AcDbLayerTableRecord
  2
B-XX-VH-ONVERHARD-GV
 70
     0
 62
     7
  6
Continuous
370
     0
390
140D
347
1410
  0
LAYER
  5
13F5
330
1424
100
AcDbSymbolTableRecord
100
AcDbLayerTableRecord
  2
B-XX-OG-TOPOGRAFIE-T18
 70
     0
 62
     7
  6
Continuous
370
     0
390
140D
347
1410
  0
LAYER
  5
13F6
330
1424
100
AcDbSymbolTableRecord
100
AcDbLayerTableRecord
  2
B-XX-OG-BEBOUWING_LAGE TRAFO-GV
 70
     0
 62
     7
  6
Continuous
370
     0
390
140D
347
1410
  0
LAYER
  5
13F7
330
1424
100
AcDbSymbolTableRecord
100
AcDbLayerTableRecord
  2
B-XX-IE-TERREINAFSCHEIDING_KUNSTMATIG_HEKWERK-G
 70
     0
 62
     7
  6
Continuous
370
     0
390
140D
347
1410
  0
LAYER
  5
13F8
330
1424
100
AcDbSymbolTableRecord
100
AcDbLayerTableRecord
  2
B-XX-VH-VERHARDING_GESLOTEN-GV
 70
     0
 62
     7
  6
Continuous
370
     0
390
140D
347
1410
  0
LAYER
  5
13F9
330
1424
100
AcDbSymbolTableRecord
100
AcDbLayerTableRecord
  2
B-XX-GR-BEPLANTING_CULTUUR_BOSPLANTSOEN-GV
 70
     0
 62
     7
  6
Continuous
370
     0
390
140D
347
1410
  0
LAYER
  5
13FA
330
1424
100
AcDbSymbolTableRecord
100
AcDbLayerTableRecord
  2
B-XX-GR-HOUTWAL-GV
 70
     0
 62
     7
  6
Continuous
370
     0
390
140D
347
1410
  0
LAYER
  5
13FB
330
1424
100
AcDbSymbolTableRecord
100
AcDbLayerTableRecord
  2
B-XX-OG-TERREIN_CULTUURSCHEIDING-GV
 70
     0
 62
     7
  6
Continuous
370
     0
390
140D
347
1410
  0
LAYER
  5
13FC
330
1424
100
AcDbSymbolTableRecord
100
AcDbLayerTableRecord
  2
B-XX-OG-TERREIN_ERF-GV
 70
     0
 62
     7
  6
Continuous
370
     0
390
140D
347
1410
  0
LAYER
  5
13FD
330
1424
100
AcDbSymbolTableRecord
100
AcDbLayerTableRecord
  2
B-XX-OG-BEBOUWING-GV
 70
     0
 62
     7
  6
Continuous
370
     0
390
140D
347
1410
  0
LAYER
  5
13FE
330
1424
100
AcDbSymbolTableRecord
100
AcDbLayerTableRecord
  2
B-XX-OG-BEBOUWING-T18
 70
     0
 62
     7
  6
Continuous
370
     0
390
140D
347
1410
  0
LAYER
  5
13FF
330
1424
100
AcDbSymbolTableRecord
100
AcDbLayerTableRecord
  2
B-XX-KG-GRENS_PERCEEL-GV
 70
     0
 62
     5
  6
Continuous
370
     0
390
140D
347
1410
  0
ENDTAB
  0
TABLE
  2
STYLE
  5
1427
330
0
100
AcDbSymbolTable
 70
     3
  0
STYLE
  5
1428
330
1427
100
AcDbSymbolTableRecord
100
AcDbTextStyleTableRecord
  2
Standard
 70
     0
 40
0.0
 41
1.0
 50
0.0
 71
     0
 42
2.5
  3
txt.shx
  4

  0
STYLE
  5
1335
330
1427
100
AcDbSymbolTableRecord
100
AcDbTextStyleTableRecord
  2
NLCS-ISO-M-T18
 70
     0
 40
1.8
 41
1.0
 50
0.0
 71
     0
 42
0.2
  3
NLCS-ISO.ttf
  4

1001
ACAD
1000
NLCS-ISO
1071
       39
  0
STYLE
  5
1393
330
1427
100
AcDbSymbolTableRecord
100
AcDbTextStyleTableRecord
  2
NLCS-ISO
 70
     0
 40
1.8
 41
1.0
 50
0.0
 71
     0
 42
0.2
  3
NLCS-ISO.ttf
  4

1001
ACAD
1000
NLCS-ISO
1071
       39
  0
ENDTAB
  0
TABLE
  2
VIEW
  5
142D
330
0
100
AcDbSymbolTable
 70
     0
  0
ENDTAB
  0
TABLE
  2
UCS
  5
142E
330
0
100
AcDbSymbolTable
 70
     0
  0
ENDTAB
  0
TABLE
  2
APPID
  5
1433
330
0
100
AcDbSymbolTable
 70
     4
  0
APPID
  5
1434
330
1433
100
AcDbSymbolTableRecord
100
AcDbRegAppTableRecord
  2
ACAD
 70
     0
  0
APPID
  5
1423
330
1433
100
AcDbSymbolTableRecord
100
AcDbRegAppTableRecord
  2
ACAD_PSEXT
 70
     0
  0
APPID
  5
1392
330
1433
100
AcDbSymbolTableRecord
100
AcDbRegAppTableRecord
  2
AcadAnnotative
 70
     0
  0
APPID
  5
151D
330
1433
100
AcDbSymbolTableRecord
100
AcDbRegAppTableRecord
  2
ACAD_MLEADERVER
 70
     0
  0
ENDTAB
  0
TABLE
  2
DIMSTYLE
  5
1435
330
0
100
AcDbSymbolTable
 70
     1
100
AcDbDimStyleTable
 71
     1
340
1436
  0
DIMSTYLE
105
1436
330
1435
100
AcDbSymbolTableRecord
100
AcDbDimStyleTableRecord
  2
Standard
 70
     0
 41
0.18
140
0.18
141
0.09
340
1428
  0
ENDTAB
  0
TABLE
  2
BLOCK_RECORD
  5
1409
330
0
100
AcDbSymbolTable
 70
     0
  0
BLOCK_RECORD
  5
140A
330
1409
100
AcDbSymbolTableRecord
100
AcDbBlockTableRecord
  2
*Model_Space
340
141B
 70
     0
280
     1
281
     0
  0
BLOCK_RECORD
  5
141D
330
1409
100
AcDbSymbolTableRecord
100
AcDbBlockTableRecord
  2
*Paper_Space
340
1420
 70
     0
280
     1
281
     0
  0
ENDTAB
  0
ENDSEC
  0
SECTION
  2
BLOCKS
  0
BLOCK
  5
140B
330
140A
100
AcDbEntity
  8
0
100
AcDbBlockBegin
  2
*Model_Space
 70
     0
 10
0.0
 20
0.0
 30
0.0
  3
*Model_Space
  1

  0
ENDBLK
  5
141A
330
140A
100
AcDbEntity
  8
0
100
AcDbBlockEnd
  0
BLOCK
  5
141E
330
141D
100
AcDbEntity
 67
     1
  8
0
100
AcDbBlockBegin
  2
*Paper_Space
 70
     0
 10
0.0
 20
0.0
 30
0.0
  3
*Paper_Space
  1

  0
ENDBLK
  5
141F
330
141D
100
AcDbEntity
 67
     1
  8
0
100
AcDbBlockEnd
  0
ENDSEC
  0
SECTION
  2
ENTITIES
  0
LWPOLYLINE
  5
12E1
330
140A
100
AcDbEntity
  8
B-XX-OG-WEG-GV
100
AcDbPolyline
 90
       11
 70
   129
 43
0.0
 10
212792.631
 20
438743.438
 10
212773.957
 20
438732.837
 10
212767.163
 20
438729.099
 10
212758.183
 20
438724.398
 10
212749.088
 20
438719.67
 10
212744.478
 20
438717.24
 10
212746.333
 20
438714.818
 10
212746.5
 20
438715.455
 10
212748.517
 20
438717.312
 10
212793.233
 20
438742.364
 10
212792.631
 20
438743.438
  0
LWPOLYLINE
  5
12E2
330
140A
100
AcDbEntity
  8
B-XX-OG-WEG-GV
100
AcDbPolyline
 90
        9
 70
   129
 43
0.0
 10
212434.929
 20
438575.866
 10
212417.771
 20
438566.737
 10
212405.421
 20
438560.166
 10
212407.148
 20
438559.455
 10
212422.781
 20
438567.863
 10
212441.048
 20
438577.868
 10
212441.093
 20
438577.892
 10
212440.605
 20
438578.78
 10
212434.929
 20
438575.866
  0
LWPOLYLINE
  5
12E3
330
140A
100
AcDbEntity
  8
B-XX-GR-GROENVOORZIENING-GV
100
AcDbPolyline
 90
       11
 70
   129
 43
0.0
 10
212831.664
 20
438643.213
 10
212834.551
 20
438646.317
 10
212833.323
 20
438646.381
 10
212813.107
 20
438653.04
 10
212812.792
 20
438653.24
 10
212811.536
 20
438650.934
 10
212811.861
 20
438649.399
 10
212811.503
 20
438648.464
 10
212820.244
 20
438645.605
 10
212828.413
 20
438643.623
 10
212831.664
 20
438643.213
  0
LWPOLYLINE
  5
12E4
330
140A
100
AcDbEntity
  8
B-XX-OG-WEG-GV
100
AcDbPolyline
 90
       30
 70
   129
 43
0.0
 10
212250.1
 20
438871.467
 10
212248.893
 20
438871.288
 10
212241.814
 20
438857.135
 10
212235.647
 20
438844.289
 10
212232.628
 20
438837.615
 10
212231.348
 20
438833.995
 10
212230.567
 20
438830.383
 10
212230.303
 20
438827.289
 10
212230.408
 20
438823.301
 10
212231.07
 20
438818.918
 10
212232.973
 20
438814.23
 10
212235.694
 20
438809.776
 10
212238.826
 20
438806.148
 10
212243.738
 20
438802.501
 10
212244.548
 20
438802.078
 10
212245.115
 20
438802.911
 10
212244.271
 20
438803.351
 10
212239.511
 20
438806.885
 10
212236.505
 20
438810.367
 10
212233.869
 20
438814.682
 10
212232.041
 20
438819.184
 10
212231.406
 20
438823.389
 10
212231.304
 20
438827.26
 10
212231.558
 20
438830.234
 10
212232.312
 20
438833.722
 10
212233.557
 20
438837.242
 10
212236.554
 20
438843.866
 10
212242.712
 20
438856.695
 10
212249.787
 20
438870.841
 10
212250.1
 20
438871.467
  0
LWPOLYLINE
  5
12E5
330
140A
100
AcDbEntity
  8
B-XX-OG-WEG-GV
100
AcDbPolyline
 90
       14
 70
   128
 43
0.0
 10
212229.346
 20
438798.297
 10
212238.359
 20
438795.92
 10
212241.239
 20
438795.161
 10
212242.045
 20
438798.218
 10
212242.593
 20
438799.063
 10
212238.991
 20
438802.062
 10
212237.166
 20
438803.594
 10
212235.668
 20
438804.851
 10
212233.042
 20
438807.951
 10
212230.618
 20
438811.645
 10
212229.011
 20
438815.404
 10
212227.613
 20
438819.38
 10
212227.001
 20
438823.922
 10
212226.937
 20
438828.145
  0
LWPOLYLINE
  5
12E6
330
140A
100
AcDbEntity
  8
B-XX-OG-WEG-GV
100
AcDbPolyline
 90
        2
 70
   128
 43
0.0
 10
212226.937
 20
438828.145
 42
0.072468
 10
212226.158
 20
438829.673
  0
LWPOLYLINE
  5
12E8
330
140A
100
AcDbEntity
  8
B-XX-OG-WEG-GV
100
AcDbPolyline
 90
        2
 70
   128
 43
0.0
 10
212226.158
 20
438829.673
 42
0.020737
 10
212225.908
 20
438830.002
  0
LWPOLYLINE
  5
12EA
330
140A
100
AcDbEntity
  8
B-XX-OG-WEG-GV
100
AcDbPolyline
 90
        2
 70
   128
 43
0.0
 10
212225.908
 20
438830.002
 42
0.090822
 10
212224.283
 20
438831.389
  0
LWPOLYLINE
  5
12EC
330
140A
100
AcDbEntity
  8
B-XX-OG-WEG-GV
100
AcDbPolyline
 90
        2
 70
   128
 43
0.0
 10
212224.283
 20
438831.389
 42
0.041656
 10
212223.389
 20
438831.814
  0
LWPOLYLINE
  5
12EE
330
140A
100
AcDbEntity
  8
B-XX-OG-WEG-GV
100
AcDbPolyline
 90
        2
 70
   128
 43
0.0
 10
212223.389
 20
438831.814
 42
0.053486
 10
212226.94
 20
438806.579
  0
LWPOLYLINE
  5
12F0
330
140A
100
AcDbEntity
  8
B-XX-OG-WEG-GV
100
AcDbPolyline
 90
        2
 70
   128
 43
0.0
 10
212226.94
 20
438806.579
 42
0.018125
 10
212229.346
 20
438798.297
  0
LWPOLYLINE
  5
12F2
330
140A
100
AcDbEntity
  8
B-XX-OG-WEG-GV
100
AcDbPolyline
 90
        6
 70
   129
 43
0.0
 10
212393.857
 20
438541.09
 10
212394.765
 20
438541.576
 10
212396.481
 20
438542.507
 10
212394.602
 20
438546.175
 10
212391.794
 20
438544.659
 10
212393.857
 20
438541.09
  0
LWPOLYLINE
  5
12F3
330
140A
100
AcDbEntity
  8
B-XX-OG-WEG-GV
100
AcDbPolyline
 90
       21
 70
   129
 43
0.0
 10
212523.206
 20
438607.494
 10
212523.692
 20
438606.62
 10
212529.536
 20
438609.735
 10
212554.685
 20
438623.324
 10
212578.796
 20
438636.124
 10
212606.932
 20
438651.38
 10
212630.004
 20
438662.84
 10
212643.366
 20
438669.154
 10
212659.07
 20
438676.701
 10
212677.531
 20
438685.095
 10
212684.598
 20
438688.462
 10
212684.184
 20
438689.373
 10
212677.109
 20
438686.002
 10
212658.646
 20
438677.607
 10
212642.936
 20
438670.057
 10
212629.568
 20
438663.74
 10
212606.471
 20
438652.268
 10
212578.323
 20
438637.005
 10
212554.213
 20
438624.206
 10
212529.063
 20
438610.616
 10
212523.206
 20
438607.494
  0
LWPOLYLINE
  5
12F4
330
140A
100
AcDbEntity
  8
B-XX-OG-WEG-GV
100
AcDbPolyline
 90
       28
 70
   129
 43
0.0
 10
212251.308
 20
438871.646
 10
212250.1
 20
438871.467
 10
212249.787
 20
438870.841
 10
212242.712
 20
438856.695
 10
212236.554
 20
438843.866
 10
212233.557
 20
438837.242
 10
212232.312
 20
438833.722
 10
212231.558
 20
438830.234
 10
212231.304
 20
438827.26
 10
212231.406
 20
438823.389
 10
212232.041
 20
438819.184
 10
212233.869
 20
438814.682
 10
212236.505
 20
438810.367
 10
212239.511
 20
438806.885
 10
212244.271
 20
438803.351
 10
212245.115
 20
438802.911
 10
212246.073
 20
438804.318
 10
212242.78
 20
438806.485
 10
212238.906
 20
438810.292
 10
212235.167
 20
438815.402
 10
212233.113
 20
438820.726
 10
212232.422
 20
438824.707
 10
212232.693
 20
438828.52
 10
212233.412
 20
438832.036
 10
212235.552
 20
438837.378
 10
212249.131
 20
438866.293
 10
212248.472
 20
438866.663
 10
212251.308
 20
438871.646
  0
LWPOLYLINE
  5
12F5
330
140A
100
AcDbEntity
  8
B-XX-OG-WEG-GV
100
AcDbPolyline
 90
       23
 70
   129
 43
0.0
 10
212720.172
 20
438726.684
 10
212725.902
 20
438730.911
 10
212732.567
 20
438735.866
 10
212736.676
 20
438738.967
 10
212737.257
 20
438740.527
 10
212736.074
 20
438739.765
 10
212731.968
 20
438736.666
 10
212725.28
 20
438731.711
 10
212720.345
 20
438728.058
 10
212712.397
 20
438722.353
 10
212707.745
 20
438719.302
 10
212704.891
 20
438717.467
 10
212691.733
 20
438709.827
 10
212686.935
 20
438706.266
 10
212686.932
 20
438706.263
 10
212678.261
 20
438701.983
 10
212678.704
 20
438701.087
 10
212687.393
 20
438705.376
 10
212694.659
 20
438709.35
 10
212704.43
 20
438715.495
 10
212710.619
 20
438719.871
 10
212712.977
 20
438721.538
 10
212720.172
 20
438726.684
  0
LWPOLYLINE
  5
12F6
330
140A
100
AcDbEntity
  8
B-XX-OG-WEG-GV
100
AcDbPolyline
 90
       13
 70
   129
 43
0.0
 10
212737.289
 20
438711.957
 10
212737.371
 20
438713.376
 10
212735.29
 20
438713.05
 10
212730.892
 20
438710.984
 10
212719.438
 20
438705.833
 10
212699.915
 20
438696.868
 10
212684.184
 20
438689.373
 10
212684.598
 20
438688.462
 10
212700.339
 20
438695.962
 10
212719.852
 20
438704.923
 10
212731.31
 20
438710.075
 10
212735.715
 20
438712.145
 10
212737.289
 20
438711.957
  0
LWPOLYLINE
  5
12F7
330
140A
100
AcDbEntity
  8
B-XX-OG-WEG-GV
100
AcDbPolyline
 90
       24
 70
   129
 43
0.0
 10
212516.501
 20
438619.557
 10
212516.987
 20
438618.683
 10
212519.318
 20
438619.946
 10
212560.732
 20
438642.065
 10
212577.704
 20
438651.207
 10
212595.771
 20
438660.819
 10
212610.534
 20
438668.727
 10
212624.34
 20
438675.672
 10
212643.363
 20
438684.694
 10
212663.59
 20
438694.111
 10
212676.732
 20
438700.114
 10
212678.704
 20
438701.087
 10
212678.261
 20
438701.983
 10
212676.303
 20
438701.017
 10
212676.292
 20
438701.012
 10
212663.171
 20
438695.019
 10
212642.938
 20
438685.599
 10
212623.901
 20
438676.571
 10
212610.073
 20
438669.615
 10
212595.3
 20
438661.701
 10
212577.232
 20
438652.089
 10
212560.259
 20
438642.946
 10
212518.844
 20
438620.827
 10
212516.501
 20
438619.557
  0
LWPOLYLINE
  5
12F8
330
140A
100
AcDbEntity
  8
B-XX-OG-WEG-GV
100
AcDbPolyline
 90
        7
 70
   129
 43
0.0
 10
212506.249
 20
438614.002
 10
212505.691
 20
438614.945
 10
212490.831
 20
438606.836
 10
212492.505
 20
438605.445
 10
212498.09
 20
438608.443
 10
212506.759
 20
438613.141
 10
212506.249
 20
438614.002
  0
LWPOLYLINE
  5
12F9
330
140A
100
AcDbEntity
  8
B-XX-OG-WEG-GV
100
AcDbPolyline
 90
       15
 70
   129
 43
0.0
 10
212811.861
 20
438649.399
 10
212811.536
 20
438650.934
 10
212800.274
 20
438656.323
 10
212790.636
 20
438663.448
 10
212783.488
 20
438669.018
 10
212778.163
 20
438673.973
 10
212771.846
 20
438680.664
 10
212769.688
 20
438683.355
 10
212768.786
 20
438682.726
 10
212775.067
 20
438674.942
 10
212781.383
 20
438668.561
 10
212789.076
 20
438662.098
 10
212796.619
 20
438656.87
 10
212803.851
 20
438652.919
 10
212811.861
 20
438649.399
  0
LWPOLYLINE
  5
12FA
330
140A
100
AcDbEntity
  8
B-XX-OG-WEG-GV
100
AcDbPolyline
 90
       10
 70
   129
 43
0.0
 10
212767.964
 20
438682.153
 10
212768.786
 20
438682.726
 10
212763.124
 20
438689.744
 10
212751.549
 20
438705.295
 10
212744.548
 20
438714.702
 10
212743.775
 20
438715.741
 10
212743.67
 20
438715.466
 10
212743.643
 20
438714.242
 10
212762.333
 20
438689.131
 10
212767.964
 20
438682.153
  0
LWPOLYLINE
  5
12FB
330
140A
100
AcDbEntity
  8
B-XX-OG-WEG-GV
100
AcDbPolyline
 90
       10
 70
   129
 43
0.0
 10
212448.478
 20
438565.104
 10
212450.044
 20
438565.877
 10
212504.716
 20
438595.06
 10
212524.216
 20
438605.677
 10
212523.692
 20
438606.62
 10
212500.873
 20
438594.455
 10
212479.18
 20
438582.825
 10
212456.405
 20
438570.654
 10
212448.085
 20
438566.084
 10
212448.478
 20
438565.104
  0
LWPOLYLINE
  5
12FC
330
140A
100
AcDbEntity
  8
B-XX-OG-WEG-GV
100
AcDbPolyline
 90
        8
 70
   129
 43
0.0
 10
212720.345
 20
438728.058
 10
212721.453
 20
438736.869
 10
212719.979
 20
438735.568
 10
212718.928
 20
438734.64
 10
212714.195
 20
438727.177
 10
212707.745
 20
438719.302
 10
212712.397
 20
438722.353
 10
212720.345
 20
438728.058
  0
LWPOLYLINE
  5
12FD
330
140A
100
AcDbEntity
  8
B-XX-VH-VERHARDING_OPEN-GV
100
AcDbPolyline
 90
        7
 70
   129
 43
0.0
 10
212500.348
 20
438598.403
 10
212499.357
 20
438600.254
 10
212500.47
 20
438603.048
 10
212493.428
 20
438599.253
 10
212495.919
 20
438598.414
 10
212496.91
 20
438596.562
 10
212500.348
 20
438598.403
  0
LWPOLYLINE
  5
12FE
330
140A
100
AcDbEntity
  8
B-XX-OG-WEG-GV
100
AcDbPolyline
 90
       12
 70
   129
 43
0.0
 10
212394.602
 20
438546.175
 10
212396.481
 20
438542.507
 10
212414.49
 20
438552.283
 10
212418.745
 20
438554.624
 10
212434.728
 20
438563.146
 10
212443.447
 20
438567.866
 10
212442.455
 20
438569.154
 10
212441.345
 20
438570.016
 10
212440.53
 20
438570.83
 10
212439.097
 20
438570.053
 10
212425.326
 20
438562.766
 10
212394.602
 20
438546.175
  0
LWPOLYLINE
  5
12FF
330
140A
100
AcDbEntity
  8
B-XX-OG-WEG-GV
100
AcDbPolyline
 90
       38
 70
   129
 43
0.0
 10
212350.739
 20
438732.118
 10
212333.903
 20
438749.645
 10
212322.931
 20
438760.006
 10
212312.795
 20
438769.578
 10
212295.188
 20
438784.276
 10
212294.023
 20
438785.249
 10
212293.554
 20
438785.535
 10
212283.314
 20
438791.788
 10
212282.428
 20
438792.329
 10
212280.974
 20
438792.93
 10
212272.389
 20
438796.482
 10
212262.453
 20
438799.114
 10
212253.065
 20
438801.369
 10
212246.073
 20
438804.318
 10
212245.115
 20
438802.911
 10
212248.977
 20
438800.896
 10
212255.542
 20
438798.963
 10
212262.128
 20
438797.573
 10
212270.337
 20
438795.379
 10
212276.797
 20
438792.891
 10
212284.954
 20
438788.937
 10
212293.536
 20
438782.777
 10
212303.141
 20
438775.273
 10
212312.432
 20
438767.087
 10
212322.624
 20
438757.351
 10
212348.532
 20
438730.952
 10
212377.728
 20
438699.819
 10
212407.193
 20
438669.346
 10
212430.088
 20
438645.383
 10
212430.99
 20
438644.428
 10
212431.861
 20
438644.981
 10
212432.315
 20
438645.853
 10
212431.834
 20
438646.457
 10
212430.316
 20
438648.365
 10
212425.87
 20
438652.807
 10
212401.942
 20
438678.354
 10
212384.731
 20
438696.731
 10
212350.739
 20
438732.118
  0
LWPOLYLINE
  5
1300
330
140A
100
AcDbEntity
  8
B-XX-OG-WEG-GV
100
AcDbPolyline
 90
        8
 70
   128
 43
0.0
 10
212245.194
 20
438880.435
 10
212246.003
 20
438879.485
 10
212246.137
 20
438878.106
 10
212239.723
 20
438865.023
 10
212239.522
 20
438864.593
 10
212230.125
 20
438844.515
 10
212228.449
 20
438845.026
 10
212223.735
 20
438836.095
  0
LWPOLYLINE
  5
1301
330
140A
100
AcDbEntity
  8
B-XX-OG-WEG-GV
100
AcDbPolyline
 90
        2
 70
   128
 43
0.0
 10
212223.735
 20
438836.095
 42
0.053769
 10
212226.54
 20
438836.699
  0
LWPOLYLINE
  5
1303
330
140A
100
AcDbEntity
  8
B-XX-OG-WEG-GV
100
AcDbPolyline
 90
        2
 70
   128
 43
0.0
 10
212226.54
 20
438836.699
 42
0.03248
 10
212228.152
 20
438837.349
  0
LWPOLYLINE
  5
1305
330
140A
100
AcDbEntity
  8
B-XX-OG-WEG-GV
100
AcDbPolyline
 90
        8
 70
   128
 43
0.0
 10
212228.152
 20
438837.349
 10
212230.723
 20
438843.316
 10
212238.475
 20
438859.722
 10
212247.848
 20
438878.24
 10
212248.161
 20
438878.859
 10
212247.368
 20
438880.326
 10
212246.555
 20
438881.882
 10
212245.194
 20
438880.435
  0
LWPOLYLINE
  5
1306
330
140A
100
AcDbEntity
  8
B-XX-OG-WEG-GV
100
AcDbPolyline
 90
       16
 70
   129
 43
0.0
 10
212523.692
 20
438606.62
 10
212524.216
 20
438605.677
 10
212579.286
 20
438635.662
 10
212622.937
 20
438658.433
 10
212669.274
 20
438680.226
 10
212685.076
 20
438687.41
 10
212684.598
 20
438688.462
 10
212677.531
 20
438685.095
 10
212659.07
 20
438676.701
 10
212643.366
 20
438669.154
 10
212630.004
 20
438662.84
 10
212606.932
 20
438651.38
 10
212578.796
 20
438636.124
 10
212554.685
 20
438623.324
 10
212529.536
 20
438609.735
 10
212523.692
 20
438606.62
  0
LWPOLYLINE
  5
1307
330
140A
100
AcDbEntity
  8
B-XX-OG-WEG-GV
100
AcDbPolyline
 90
        8
 70
   129
 43
0.0
 10
212445.336
 20
438629.996
 10
212435.197
 20
438640.521
 10
212435.32
 20
438639.85
 10
212435.321
 20
438639.843
 10
212435.536
 20
438638.159
 10
212439.945
 20
438633.491
 10
212444.205
 20
438629.011
 10
212445.336
 20
438629.996
  0
LWPOLYLINE
  5
1308
330
140A
100
AcDbEntity
  8
B-XX-OG-WEG-GV
100
AcDbPolyline
 90
       17
 70
   129
 43
0.0
 10
212764.775
 20
438679.929
 10
212763.953
 20
438679.356
 10
212767.954
 20
438674.35
 10
212773.703
 20
438668.181
 10
212779.823
 20
438662.317
 10
212786.4
 20
438656.799
 10
212793.822
 20
438651.832
 10
212807.979
 20
438644.754
 10
212809.693
 20
438644.074
 10
212809.994
 20
438645.031
 10
212808.388
 20
438645.668
 10
212794.326
 20
438652.698
 10
212787.001
 20
438657.6
 10
212780.491
 20
438663.062
 10
212774.415
 20
438668.883
 10
212768.711
 20
438675.004
 10
212764.775
 20
438679.929
  0
LWPOLYLINE
  5
1309
330
140A
100
AcDbEntity
  8
B-XX-OG-WEG-GV
100
AcDbPolyline
 90
       15
 70
   129
 43
0.0
 10
212768.786
 20
438682.726
 10
212767.964
 20
438682.153
 10
212774.321
 20
438674.275
 10
212780.705
 20
438667.825
 10
212788.468
 20
438661.303
 10
212796.093
 20
438656.018
 10
212803.409
 20
438652.021
 10
212811.503
 20
438648.464
 10
212811.861
 20
438649.399
 10
212803.851
 20
438652.919
 10
212796.619
 20
438656.87
 10
212789.076
 20
438662.098
 10
212781.383
 20
438668.561
 10
212775.067
 20
438674.942
 10
212768.786
 20
438682.726
  0
LWPOLYLINE
  5
130A
330
140A
100
AcDbEntity
  8
B-XX-OG-WEG-GV
100
AcDbPolyline
 90
       18
 70
   129
 43
0.0
 10
212819.908
 20
438791.813
 10
212819.837
 20
438793.204
 10
212819.83
 20
438793.334
 10
212819.799
 20
438793.32
 10
212811.254
 20
438789.452
 10
212801.527
 20
438784.623
 10
212794.055
 20
438780.648
 10
212792.428
 20
438779.782
 10
212789.836
 20
438778.336
 10
212787.203
 20
438776.868
 10
212787.487
 20
438776.127
 10
212787.852
 20
438775.177
 10
212790.87
 20
438777.046
 10
212799.553
 20
438782.023
 10
212800.142
 20
438782.321
 10
212808.319
 20
438786.45
 10
212809.995
 20
438787.296
 10
212819.908
 20
438791.813
  0
LWPOLYLINE
  5
130B
330
140A
100
AcDbEntity
  8
B-XX-OG-WEG-GV
100
AcDbPolyline
 90
        9
 70
   128
 43
0.0
 10
212229.586
 20
438838.152
 10
212231.634
 20
438842.904
 10
212239.373
 20
438859.282
 10
212248.74
 20
438877.789
 10
212248.161
 20
438878.859
 10
212247.848
 20
438878.24
 10
212238.475
 20
438859.722
 10
212230.723
 20
438843.316
 10
212228.152
 20
438837.349
  0
LWPOLYLINE
  5
130C
330
140A
100
AcDbEntity
  8
B-XX-OG-WEG-GV
100
AcDbPolyline
 90
        2
 70
   128
 43
0.0
 10
212228.152
 20
438837.349
 42
0.030557
 10
212229.586
 20
438838.152
  0
LWPOLYLINE
  5
130E
330
140A
100
AcDbEntity
  8
B-XX-OG-WEG-GV
100
AcDbPolyline
 90
       17
 70
   129
 43
0.0
 10
212786.515
 20
438775.734
 10
212776.726
 20
438779.458
 10
212769.153
 20
438781.608
 10
212763.254
 20
438781.147
 10
212757.277
 20
438778.452
 10
212752.508
 20
438773.941
 10
212748.504
 20
438767.239
 10
212743.353
 20
438756.887
 10
212737.257
 20
438740.527
 10
212740.469
 20
438743.084
 10
212754.564
 20
438753.548
 10
212769.304
 20
438764.177
 10
212776.783
 20
438769.235
 10
212781.382
 20
438772.348
 10
212787.487
 20
438776.127
 10
212787.203
 20
438776.868
 10
212786.515
 20
438775.734
  0
LWPOLYLINE
  5
130F
330
140A
100
AcDbEntity
  8
B-XX-OG-WEG-GV
100
AcDbPolyline
 90
       18
 70
   129
 43
0.0
 10
212519.863
 20
438613.509
 10
212521.824
 20
438609.979
 10
212543.487
 20
438621.658
 10
212563.825
 20
438632.553
 10
212584.821
 20
438644.048
 10
212605.599
 20
438654.96
 10
212625.828
 20
438665.233
 10
212648.178
 20
438675.874
 10
212674.489
 20
438688.002
 10
212682.958
 20
438691.993
 10
212681.175
 20
438695.804
 10
212659.355
 20
438685.699
 10
212639.13
 20
438676.404
 10
212626.105
 20
438670.118
 10
212613.027
 20
438663.539
 10
212579.443
 20
438645.58
 10
212545.058
 20
438627.133
 10
212519.863
 20
438613.509
  0
LWPOLYLINE
  5
1310
330
140A
100
AcDbEntity
  8
B-XX-OG-WEG-GV
100
AcDbPolyline
 90
       10
 70
   129
 43
0.0
 10
212251.42
 20
438885.299
 10
212251.564
 20
438885.317
 10
212252.933
 20
438886.074
 10
212253.46
 20
438887.114
 10
212259.451
 20
438899.083
 10
212258.557
 20
438899.53
 10
212258.378
 20
438899.62
 10
212257.116
 20
438899.217
 10
212250.128
 20
438885.137
 10
212251.42
 20
438885.299
  0
LWPOLYLINE
  5
1311
330
140A
100
AcDbEntity
  8
B-XX-GR-GROENVOORZIENING-GV
100
AcDbPolyline
 90
        8
 70
   129
 43
0.0
 10
212428.047
 20
438639.907
 10
212427.076
 20
438638.961
 10
212430.357
 20
438636.442
 10
212436.747
 20
438629.634
 10
212439.131
 20
438627.444
 10
212439.614
 20
438627.804
 10
212430.657
 20
438637.231
 10
212428.047
 20
438639.907
  0
LWPOLYLINE
  5
1312
330
140A
100
AcDbEntity
  8
B-XX-OG-WEG-GV
100
AcDbPolyline
 90
       17
 70
   129
 43
0.0
 10
212720.228
 20
438719.51
 10
212717.086
 20
438717.277
 10
212711.015
 20
438713.099
 10
212702.547
 20
438707.41
 10
212695.737
 20
438703.392
 10
212694.352
 20
438702.575
 10
212696.348
 20
438698.28
 10
212697.799
 20
438698.954
 10
212722.029
 20
438710.215
 10
212734.041
 20
438715.858
 10
212735.974
 20
438716.705
 10
212734.782
 20
438717.813
 10
212732.137
 20
438718.982
 10
212729.351
 20
438719.786
 10
212726.082
 20
438720.183
 10
212722.879
 20
438720.15
 10
212720.228
 20
438719.51
  0
LWPOLYLINE
  5
1313
330
140A
100
AcDbEntity
  8
B-XX-OG-WEG-GV
100
AcDbPolyline
 90
        7
 70
   129
 43
0.0
 10
212475.663
 20
438589.743
 10
212477.559
 20
438586.202
 10
212496.91
 20
438596.562
 10
212495.919
 20
438598.414
 10
212493.428
 20
438599.253
 10
212485.533
 20
438594.998
 10
212475.663
 20
438589.743
  0
LWPOLYLINE
  5
1314
330
140A
100
AcDbEntity
  8
B-XX-OG-WEG-GV
100
AcDbPolyline
 90
       13
 70
   129
 43
0.0
 10
212749.601
 20
438699.671
 10
212744.245
 20
438706.875
 10
212740.512
 20
438711.741
 10
212737.371
 20
438713.376
 10
212737.289
 20
438711.957
 10
212739.791
 20
438711.038
 10
212743.447
 20
438706.272
 10
212748.802
 20
438699.07
 10
212760.378
 20
438683.829
 10
212763.953
 20
438679.356
 10
212764.775
 20
438679.929
 10
212761.167
 20
438684.444
 10
212749.601
 20
438699.671
  0
LWPOLYLINE
  5
1315
330
140A
100
AcDbEntity
  8
B-XX-OG-WEG-GV
100
AcDbPolyline
 90
        7
 70
   129
 43
0.0
 10
212451.497
 20
438621.342
 10
212452.389
 20
438621.855
 10
212452.897
 20
438622.147
 10
212452.355
 20
438622.709
 10
212445.336
 20
438629.996
 10
212444.205
 20
438629.011
 10
212451.497
 20
438621.342
  0
LWPOLYLINE
  5
1316
330
140A
100
AcDbEntity
  8
B-XX-OG-WEG-GV
100
AcDbPolyline
 90
       12
 70
   129
 43
0.0
 10
212443.21
 20
438580.118
 10
212440.605
 20
438578.78
 10
212441.093
 20
438577.892
 10
212467.224
 20
438591.873
 10
212467.73
 20
438593.204
 10
212468.108
 20
438595.325
 10
212468.106
 20
438595.39
 10
212467.217
 20
438595.489
 10
212467.121
 20
438594.294
 10
212466.623
 20
438592.965
 10
212465.641
 20
438592.054
 10
212443.21
 20
438580.118
  0
LWPOLYLINE
  5
1317
330
140A
100
AcDbEntity
  8
B-XX-VH-VERHARDING_OPEN-GV
100
AcDbPolyline
 90
        9
 70
   129
 43
0.0
 10
212446.945
 20
438569.759
 10
212446.682
 20
438571.198
 10
212446.671
 20
438572.763
 10
212446.836
 20
438574.247
 10
212440.53
 20
438570.83
 10
212441.345
 20
438570.016
 10
212442.455
 20
438569.154
 10
212443.447
 20
438567.866
 10
212446.945
 20
438569.759
  0
LWPOLYLINE
  5
1318
330
140A
100
AcDbEntity
  8
B-XX-OG-WEG-GV
100
AcDbPolyline
 90
       11
 70
   129
 43
0.0
 10
212737.257
 20
438740.527
 10
212736.676
 20
438738.967
 10
212741.068
 20
438742.283
 10
212755.155
 20
438752.741
 10
212769.877
 20
438763.357
 10
212777.343
 20
438768.407
 10
212776.783
 20
438769.235
 10
212769.304
 20
438764.177
 10
212754.564
 20
438753.548
 10
212740.469
 20
438743.084
 10
212737.257
 20
438740.527
  0
LWPOLYLINE
  5
1319
330
140A
100
AcDbEntity
  8
B-XX-OG-WEG-GV
100
AcDbPolyline
 90
        8
 70
   129
 43
0.0
 10
212274.225
 20
438919.478
 10
212274.131
 20
438919.474
 10
212267.359
 20
438905.127
 10
212266.988
 20
438904.339
 10
212267.597
 20
438903.777
 10
212267.903
 20
438904.569
 10
212275.481
 20
438919.534
 10
212274.225
 20
438919.478
  0
LWPOLYLINE
  5
131A
330
140A
100
AcDbEntity
  8
B-XX-OG-WEG-GV
100
AcDbPolyline
 90
        7
 70
   129
 43
0.0
 10
212266.988
 20
438904.339
 10
212267.359
 20
438905.127
 10
212274.131
 20
438919.474
 10
212273.001
 20
438919.424
 10
212266.455
 20
438905.554
 10
212266.793
 20
438904.519
 10
212266.988
 20
438904.339
  0
LWPOLYLINE
  5
131B
330
140A
100
AcDbEntity
  8
B-XX-OG-WEG-GV
100
AcDbPolyline
 90
        8
 70
   129
 43
0.0
 10
212696.348
 20
438698.28
 10
212694.352
 20
438702.575
 10
212693.4
 20
438702.013
 10
212682.896
 20
438696.601
 10
212681.175
 20
438695.804
 10
212682.958
 20
438691.993
 10
212693.006
 20
438696.727
 10
212696.348
 20
438698.28
  0
LWPOLYLINE
  5
131C
330
140A
100
AcDbEntity
  8
B-XX-OG-WEG-GV
100
AcDbPolyline
 90
        9
 70
   129
 43
0.0
 10
212475.619
 20
438585.164
 10
212473.721
 20
438588.709
 10
212462.471
 20
438582.719
 10
212446.836
 20
438574.247
 10
212446.671
 20
438572.763
 10
212446.682
 20
438571.198
 10
212446.945
 20
438569.759
 10
212455.869
 20
438574.59
 10
212475.619
 20
438585.164
  0
LWPOLYLINE
  5
131D
330
140A
100
AcDbEntity
  8
B-XX-VH-VERHARDING_OPEN-GV
100
AcDbPolyline
 90
        7
 70
   129
 43
0.0
 10
212447.716
 20
438567.005
 10
212445.07
 20
438565.559
 10
212445.444
 20
438564.624
 10
212445.894
 20
438563.498
 10
212448.478
 20
438565.104
 10
212448.085
 20
438566.084
 10
212447.716
 20
438567.005
  0
LWPOLYLINE
  5
131E
330
140A
100
AcDbEntity
  8
B-XX-VH-VERHARDING_HALFVERHARDING-GV
100
AcDbPolyline
 90
        9
 70
   129
 43
0.0
 10
212397.628
 20
438556.019
 10
212385.614
 20
438549.84
 10
212385.921
 20
438549.207
 10
212386.357
 20
438548.307
 10
212391.971
 20
438551.309
 10
212397.271
 20
438554.143
 10
212398.314
 20
438554.704
 10
212397.851
 20
438555.591
 10
212397.628
 20
438556.019
  0
LWPOLYLINE
  5
131F
330
140A
100
AcDbEntity
  8
B-XX-VH-ONVERHARD-GV
100
AcDbPolyline
 90
        5
 70
   129
 43
0.0
 10
212390.389
 20
438543.9
 10
212392.168
 20
438540.186
 10
212393.857
 20
438541.09
 10
212391.794
 20
438544.659
 10
212390.389
 20
438543.9
  0
LWPOLYLINE
  5
1320
330
140A
100
AcDbEntity
  8
B-XX-OG-WEG-GV
100
AcDbPolyline
 90
       34
 70
   129
 43
0.0
 10
212430.99
 20
438644.428
 10
212430.088
 20
438645.383
 10
212407.193
 20
438669.346
 10
212377.728
 20
438699.819
 10
212348.532
 20
438730.952
 10
212322.624
 20
438757.351
 10
212312.432
 20
438767.087
 10
212303.141
 20
438775.273
 10
212293.536
 20
438782.777
 10
212284.954
 20
438788.937
 10
212276.797
 20
438792.891
 10
212270.337
 20
438795.379
 10
212262.128
 20
438797.573
 10
212255.542
 20
438798.963
 10
212248.977
 20
438800.896
 10
212245.115
 20
438802.911
 10
212244.548
 20
438802.078
 10
212248.601
 20
438799.964
 10
212255.297
 20
438797.993
 10
212262.949
 20
438796.378
 10
212270.024
 20
438794.428
 10
212276.398
 20
438791.973
 10
212284.441
 20
438788.075
 10
212292.936
 20
438781.977
 10
212302.502
 20
438774.503
 10
212311.756
 20
438766.35
 10
212321.921
 20
438756.639
 10
212347.81
 20
438730.26
 10
212377.004
 20
438699.129
 10
212406.472
 20
438668.653
 10
212429.363
 20
438644.695
 10
212430.047
 20
438643.97
 10
212430.848
 20
438644.337
 10
212430.99
 20
438644.428
  0
LWPOLYLINE
  5
1321
330
140A
100
AcDbEntity
  8
B-XX-OG-WEG-GV
100
AcDbPolyline
 90
        7
 70
   129
 43
0.0
 10
212516.018
 20
438620.426
 10
212505.691
 20
438614.945
 10
212506.249
 20
438614.002
 10
212506.759
 20
438613.141
 10
212516.987
 20
438618.683
 10
212516.501
 20
438619.557
 10
212516.018
 20
438620.426
  0
LWPOLYLINE
  5
1322
330
140A
100
AcDbEntity
  8
B-XX-OG-WEG-GV
100
AcDbPolyline
 90
       11
 70
   129
 43
0.0
 10
212738.076
 20
438710.517
 10
212737.289
 20
438711.957
 10
212735.715
 20
438712.145
 10
212731.31
 20
438710.075
 10
212719.852
 20
438704.923
 10
212700.339
 20
438695.962
 10
212684.598
 20
438688.462
 10
212685.076
 20
438687.41
 10
212733.936
 20
438709.623
 10
212736.751
 20
438710.354
 10
212738.076
 20
438710.517
  0
LWPOLYLINE
  5
1323
330
140A
100
AcDbEntity
  8
B-XX-VH-VERHARDING_OPEN-GV
100
AcDbPolyline
 90
        5
 70
   129
 43
0.0
 10
212477.559
 20
438586.202
 10
212475.663
 20
438589.743
 10
212473.721
 20
438588.709
 10
212475.619
 20
438585.164
 10
212477.559
 20
438586.202
  0
LWPOLYLINE
  5
1324
330
140A
100
AcDbEntity
  8
B-XX-OG-WEG-GV
100
AcDbPolyline
 90
       27
 70
   129
 43
0.0
 10
212427.076
 20
438638.961
 10
212428.047
 20
438639.907
 10
212426.387
 20
438641.611
 10
212409.788
 20
438659.159
 10
212380.038
 20
438690.514
 10
212346.209
 20
438725.994
 10
212323.517
 20
438749.7
 10
212309.448
 20
438762.943
 10
212296.729
 20
438773.973
 10
212289.578
 20
438779.794
 10
212282.012
 20
438784.68
 10
212275.419
 20
438788.062
 10
212267.758
 20
438790.844
 10
212258.928
 20
438792.958
 10
212250.76
 20
438794.853
 10
212245.803
 20
438796.374
 10
212242.045
 20
438798.218
 10
212241.239
 20
438795.161
 10
212248.598
 20
438793.22
 10
212269.498
 20
438788.105
 10
212277.809
 20
438784.596
 10
212288.145
 20
438778.224
 10
212303.703
 20
438765.534
 10
212354.359
 20
438714.631
 10
212398.469
 20
438668.385
 10
212425.667
 20
438640.043
 10
212427.076
 20
438638.961
  0
LWPOLYLINE
  5
1325
330
140A
100
AcDbEntity
  8
B-XX-OG-WEG-GV
100
AcDbPolyline
 90
       36
 70
   129
 43
0.0
 10
212428.047
 20
438639.907
 10
212430.657
 20
438637.231
 10
212439.614
 20
438627.804
 10
212440.422
 20
438628.406
 10
212431.377
 20
438637.924
 10
212427.108
 20
438642.304
 10
212410.514
 20
438659.847
 10
212380.762
 20
438691.203
 10
212346.932
 20
438726.685
 10
212324.221
 20
438750.41
 10
212310.119
 20
438763.685
 10
212297.372
 20
438774.739
 10
212290.167
 20
438780.604
 10
212282.513
 20
438785.547
 10
212275.819
 20
438788.98
 10
212268.046
 20
438791.803
 10
212259.157
 20
438793.931
 10
212251.02
 20
438795.819
 10
212246.172
 20
438797.307
 10
212242.593
 20
438799.063
 10
212242.045
 20
438798.218
 10
212245.803
 20
438796.374
 10
212250.76
 20
438794.853
 10
212258.928
 20
438792.958
 10
212267.758
 20
438790.844
 10
212275.419
 20
438788.062
 10
212282.012
 20
438784.68
 10
212289.578
 20
438779.794
 10
212296.729
 20
438773.973
 10
212309.448
 20
438762.943
 10
212323.517
 20
438749.7
 10
212346.209
 20
438725.994
 10
212380.038
 20
438690.514
 10
212409.788
 20
438659.159
 10
212426.387
 20
438641.611
 10
212428.047
 20
438639.907
  0
LWPOLYLINE
  5
1326
330
140A
100
AcDbEntity
  8
B-XX-OG-WEG-GV
100
AcDbPolyline
 90
        8
 70
   129
 43
0.0
 10
212500.47
 20
438603.048
 10
212499.357
 20
438600.254
 10
212500.348
 20
438598.403
 10
212500.886
 20
438598.691
 10
212521.824
 20
438609.979
 10
212519.863
 20
438613.509
 10
212515.233
 20
438611.005
 10
212500.47
 20
438603.048
  0
LWPOLYLINE
  5
1327
330
140A
100
AcDbEntity
  8
B-XX-OG-WEG-GV
100
AcDbPolyline
 90
       12
 70
   129
 43
0.0
 10
212752.035
 20
438690.685
 10
212761.911
 20
438677.463
 10
212763.953
 20
438679.356
 10
212760.378
 20
438683.829
 10
212748.802
 20
438699.07
 10
212743.447
 20
438706.272
 10
212739.791
 20
438711.038
 10
212737.289
 20
438711.957
 10
212738.076
 20
438710.517
 10
212739.684
 20
438708.482
 10
212751.486
 20
438691.421
 10
212752.035
 20
438690.685
  0
LWPOLYLINE
  5
1328
330
140A
100
AcDbEntity
  8
B-XX-OG-WEG-GV
100
AcDbPolyline
 90
       21
 70
   129
 43
0.0
 10
212780.123
 20
438763.42
 10
212771.736
 20
438757.548
 10
212758.009
 20
438747.628
 10
212748.115
 20
438740.286
 10
212743.617
 20
438736.936
 10
212742.451
 20
438735.719
 10
212741.39
 20
438734.127
 10
212740.485
 20
438732.516
 10
212739.85
 20
438730.894
 10
212739.313
 20
438729.055
 10
212739.081
 20
438726.796
 10
212739.114
 20
438725.086
 10
212739.306
 20
438723.074
 10
212739.847
 20
438720.986
 10
212740.827
 20
438718.886
 10
212743.557
 20
438720.099
 10
212754.335
 20
438725.61
 10
212765.057
 20
438731.167
 10
212778.368
 20
438738.634
 10
212791.22
 20
438745.924
 10
212780.123
 20
438763.42
  0
LWPOLYLINE
  5
1329
330
140A
100
AcDbEntity
  8
B-XX-OG-WEG-GV
100
AcDbPolyline
 90
       11
 70
   129
 43
0.0
 10
212523.206
 20
438607.494
 10
212500.402
 20
438595.337
 10
212478.708
 20
438583.707
 10
212455.928
 20
438571.533
 10
212447.716
 20
438567.005
 10
212448.085
 20
438566.084
 10
212456.405
 20
438570.654
 10
212479.18
 20
438582.825
 10
212500.873
 20
438594.455
 10
212523.692
 20
438606.62
 10
212523.206
 20
438607.494
  0
LWPOLYLINE
  5
132A
330
140A
100
AcDbEntity
  8
B-XX-OG-WEG-GV
100
AcDbPolyline
 90
        7
 70
   129
 43
0.0
 10
212777.343
 20
438768.407
 10
212781.926
 20
438771.508
 10
212787.852
 20
438775.177
 10
212787.487
 20
438776.127
 10
212781.382
 20
438772.348
 10
212776.783
 20
438769.235
 10
212777.343
 20
438768.407
  0
LWPOLYLINE
  5
132B
330
140A
100
AcDbEntity
  8
B-XX-OG-WEG-GV
100
AcDbPolyline
 90
       11
 70
   129
 43
0.0
 10
212445.07
 20
438565.559
 10
212437.745
 20
438561.556
 10
212415.987
 20
438549.708
 10
212398.519
 20
438540.355
 10
212397.782
 20
438539.968
 10
212398.238
 20
438539.078
 10
212398.987
 20
438539.472
 10
212416.462
 20
438548.828
 10
212438.224
 20
438560.678
 10
212445.444
 20
438564.624
 10
212445.07
 20
438565.559
  0
LWPOLYLINE
  5
132C
330
140A
100
AcDbEntity
  8
B-XX-OG-WEG-GV
100
AcDbPolyline
 90
       17
 70
   129
 43
0.0
 10
212665.596
 20
438696.526
 10
212630.128
 20
438680.045
 10
212608.568
 20
438669.349
 10
212572.988
 20
438650.271
 10
212527.162
 20
438626.34
 10
212516.018
 20
438620.426
 10
212516.501
 20
438619.557
 10
212518.844
 20
438620.827
 10
212560.259
 20
438642.946
 10
212577.232
 20
438652.089
 10
212595.3
 20
438661.701
 10
212610.073
 20
438669.615
 10
212623.901
 20
438676.571
 10
212642.938
 20
438685.599
 10
212663.171
 20
438695.019
 10
212676.292
 20
438701.012
 10
212665.596
 20
438696.526
  0
LWPOLYLINE
  5
132D
330
140A
100
AcDbEntity
  8
B-XX-OG-WEG-GV
100
AcDbPolyline
 90
       11
 70
   129
 43
0.0
 10
212253.772
 20
438877.163
 10
212259.087
 20
438887.788
 10
212259.596
 20
438888.709
 10
212263.784
 20
438896.456
 10
212263.847
 20
438896.626
 10
212263.151
 20
438896.611
 10
212262.01
 20
438896.587
 10
212252.216
 20
438877.844
 10
212252.952
 20
438877.093
 10
212253.463
 20
438876.571
 10
212253.772
 20
438877.163
  0
LWPOLYLINE
  5
132E
330
140A
100
AcDbEntity
  8
B-XX-GR-GROENVOORZIENING-GV
100
AcDbPolyline
 90
        7
 70
   129
 43
0.0
 10
212460.644
 20
438607.232
 10
212459.729
 20
438606.736
 10
212463.99
 20
438602.419
 10
212464.586
 20
438602.157
 10
212465.012
 20
438602.739
 10
212464.741
 20
438603.082
 10
212460.644
 20
438607.232
  0
LWPOLYLINE
  5
132F
330
140A
100
AcDbEntity
  8
B-XX-OG-WEG-GV
100
AcDbPolyline
 90
       10
 70
   129
 43
0.0
 10
212444.87
 20
438562.938
 10
212445.894
 20
438563.498
 10
212445.444
 20
438564.624
 10
212438.224
 20
438560.678
 10
212416.462
 20
438548.828
 10
212398.987
 20
438539.472
 10
212398.238
 20
438539.078
 10
212398.492
 20
438538.583
 10
212398.643
 20
438538.665
 10
212444.87
 20
438562.938
  0
LWPOLYLINE
  5
1330
330
140A
100
AcDbEntity
  8
B-XX-OG-WEG-GV
100
AcDbPolyline
 90
        9
 70
   129
 43
0.0
 10
212327.522
 20
438519.252
 10
212328.077
 20
438518.223
 10
212345.633
 20
438527.683
 10
212372.197
 20
438541.869
 10
212385.921
 20
438549.207
 10
212385.614
 20
438549.84
 10
212376.722
 20
438545.26
 10
212339.262
 20
438524.788
 10
212327.522
 20
438519.252
  0
LWPOLYLINE
  5
1331
330
140A
100
AcDbEntity
  8
B-XX-OG-WEG-GV
100
AcDbPolyline
 90
       12
 70
   129
 43
0.0
 10
212768.786
 20
438682.726
 10
212769.688
 20
438683.355
 10
212759.522
 20
438696.029
 10
212746.201
 20
438714.312
 10
212746.333
 20
438714.818
 10
212744.478
 20
438717.24
 10
212744.122
 20
438716.646
 10
212743.775
 20
438715.741
 10
212744.548
 20
438714.702
 10
212751.549
 20
438705.295
 10
212763.124
 20
438689.744
 10
212768.786
 20
438682.726
  0
TEXT
  5
1336
330
140A
100
AcDbEntity
  8
B-XX-OG-TOPOGRAFIE-T18
100
AcDbText
 10
212376.255379
 20
438694.725327
 30
0.0
 40
1.8
  1
Kilderseveld
 50
313.6
  7
NLCS-ISO-M-T18
 72
     1
 11
212381.5
 21
438690.523
 31
0.0
100
AcDbText
 73
     2
  0
TEXT
  5
1337
330
140A
100
AcDbEntity
  8
B-XX-OG-TOPOGRAFIE-T18
100
AcDbText
 10
212266.293471
 20
438904.390188
 30
0.0
 40
1.8
  1
Kilderseveld
 50
64.7
  7
NLCS-ISO-M-T18
 72
     1
 11
212268.326
 21
438910.796
 31
0.0
100
AcDbText
 73
     2
  0
TEXT
  5
1338
330
140A
100
AcDbEntity
  8
B-XX-OG-TOPOGRAFIE-T18
100
AcDbText
 10
212575.687353
 20
438644.815875
 30
0.0
 40
1.8
  1
Beekseweg
 50
28.2
  7
NLCS-ISO-M-T18
 72
     1
 11
212580.497
 21
438648.416
 31
0.0
100
AcDbText
 73
     2
  0
LWPOLYLINE
  5
1339
330
140A
100
AcDbEntity
  8
B-XX-OG-BEBOUWING_LAGE TRAFO-GV
100
AcDbPolyline
 90
        5
 70
   129
 43
0.0
 10
212421.869
 20
438631.683
 10
212422.984
 20
438630.643
 10
212423.816
 20
438631.754
 10
212422.701
 20
438632.794
 10
212421.869
 20
438631.683
  0
LWPOLYLINE
  5
133A
330
140A
100
AcDbEntity
  8
B-XX-IE-TERREINAFSCHEIDING_KUNSTMATIG_HEKWERK-G
100
AcDbPolyline
 90
        2
 70
   128
 43
0.0
 10
212792.428
 20
438779.782
 10
212794.055
 20
438780.648
  0
LWPOLYLINE
  5
133B
330
140A
100
AcDbEntity
  8
B-XX-IE-TERREINAFSCHEIDING_KUNSTMATIG_HEKWERK-G
100
AcDbPolyline
 90
        4
 70
   128
 43
0.0
 10
212794.055
 20
438780.648
 10
212801.527
 20
438784.623
 10
212811.254
 20
438789.452
 10
212819.799
 20
438793.32
  0
LWPOLYLINE
  5
133C
330
140A
100
AcDbEntity
  8
B-XX-IE-TERREINAFSCHEIDING_KUNSTMATIG_HEKWERK-G
100
AcDbPolyline
 90
        2
 70
   128
 43
0.0
 10
212819.799
 20
438793.32
 10
212819.83
 20
438793.334
  0
LWPOLYLINE
  5
133D
330
140A
100
AcDbEntity
  8
B-XX-IE-TERREINAFSCHEIDING_KUNSTMATIG_HEKWERK-G
100
AcDbPolyline
 90
        2
 70
   128
 43
0.0
 10
212819.83
 20
438793.334
 10
212824.67
 20
438795.525
  0
LWPOLYLINE
  5
133E
330
140A
100
AcDbEntity
  8
B-XX-VH-VERHARDING_GESLOTEN-GV
100
AcDbPolyline
 90
        7
 70
   129
 43
0.0
 10
212444.761
 20
438623.828
 10
212443.964
 20
438623.217
 10
212454.537
 20
438611.994
 10
212459.729
 20
438606.736
 10
212460.644
 20
438607.232
 10
212455.257
 20
438612.688
 10
212444.761
 20
438623.828
  0
LWPOLYLINE
  5
133F
330
140A
100
AcDbEntity
  8
B-XX-VH-VERHARDING_OPEN-GV
100
AcDbPolyline
 90
        9
 70
   129
 43
0.0
 10
212267.597
 20
438903.777
 10
212266.988
 20
438904.339
 10
212266.793
 20
438904.519
 10
212266.455
 20
438905.554
 10
212264.207
 20
438900.791
 10
212262.01
 20
438896.587
 10
212263.151
 20
438896.611
 10
212263.847
 20
438896.626
 10
212267.597
 20
438903.777
  0
LWPOLYLINE
  5
1340
330
140A
100
AcDbEntity
  8
B-XX-OG-WEG-GV
100
AcDbPolyline
 90
       18
 70
   129
 43
0.0
 10
212740.827
 20
438718.886
 10
212739.847
 20
438720.986
 10
212739.306
 20
438723.074
 10
212739.114
 20
438725.086
 10
212739.081
 20
438726.796
 10
212739.313
 20
438729.055
 10
212739.85
 20
438730.894
 10
212740.485
 20
438732.516
 10
212741.39
 20
438734.127
 10
212742.451
 20
438735.719
 10
212720.228
 20
438719.51
 10
212722.879
 20
438720.15
 10
212726.082
 20
438720.183
 10
212729.351
 20
438719.786
 10
212732.137
 20
438718.982
 10
212734.782
 20
438717.813
 10
212735.974
 20
438716.705
 10
212740.827
 20
438718.886
  0
LWPOLYLINE
  5
1341
330
140A
100
AcDbEntity
  8
B-XX-VH-VERHARDING_GESLOTEN-GV
100
AcDbPolyline
 90
        5
 70
   129
 43
0.0
 10
212802.944
 20
438777.239
 10
212810.904
 20
438781.263
 10
212808.319
 20
438786.45
 10
212800.142
 20
438782.321
 10
212802.944
 20
438777.239
  0
LWPOLYLINE
  5
1342
330
140A
100
AcDbEntity
  8
B-XX-VH-ONVERHARD-GV
100
AcDbPolyline
 90
       13
 70
   129
 43
0.0
 10
212434.903
 20
438644.906
 10
212432.315
 20
438645.853
 10
212431.861
 20
438644.981
 10
212430.99
 20
438644.428
 10
212430.848
 20
438644.337
 10
212430.047
 20
438643.97
 10
212435.536
 20
438638.159
 10
212435.321
 20
438639.843
 10
212435.32
 20
438639.85
 10
212435.197
 20
438640.521
 10
212435.04
 20
438641.371
 10
212434.873
 20
438643.085
 10
212434.903
 20
438644.906
  0
LWPOLYLINE
  5
1343
330
140A
100
AcDbEntity
  8
B-XX-VH-VERHARDING_HALFVERHARDING-GV
100
AcDbPolyline
 90
        6
 70
   129
 43
0.0
 10
212397.628
 20
438556.019
 10
212397.851
 20
438555.591
 10
212398.314
 20
438554.704
 10
212407.148
 20
438559.455
 10
212405.421
 20
438560.166
 10
212397.628
 20
438556.019
  0
LWPOLYLINE
  5
1344
330
140A
100
AcDbEntity
  8
B-XX-VH-VERHARDING_HALFVERHARDING-GV
100
AcDbPolyline
 90
       20
 70
   129
 43
0.0
 10
212482.381
 20
438600.01
 10
212492.505
 20
438605.445
 10
212490.831
 20
438606.836
 10
212488.076
 20
438605.333
 10
212481.768
 20
438601.613
 10
212479.426
 20
438601.187
 10
212477.19
 20
438601.249
 10
212474.23
 20
438601.86
 10
212473.223
 20
438602.268
 10
212470.841
 20
438603.872
 10
212467.967
 20
438606.707
 10
212457.538
 20
438617.363
 10
212456.107
 20
438616.494
 10
212463.671
 20
438608.539
 10
212469.342
 20
438603.36
 10
212472.566
 20
438601.032
 10
212474.816
 20
438600.298
 10
212477.254
 20
438599.915
 10
212480.54
 20
438599.799
 10
212482.381
 20
438600.01
  0
LWPOLYLINE
  5
1345
330
140A
100
AcDbEntity
  8
B-XX-VH-VERHARDING_OPEN-GV
100
AcDbPolyline
 90
        7
 70
   129
 43
0.0
 10
212455.696
 20
438619.245
 10
212452.897
 20
438622.147
 10
212452.389
 20
438621.855
 10
212451.497
 20
438621.342
 10
212456.107
 20
438616.494
 10
212457.538
 20
438617.363
 10
212455.696
 20
438619.245
  0
LWPOLYLINE
  5
1346
330
140A
100
AcDbEntity
  8
B-XX-VH-VERHARDING_OPEN-GV
100
AcDbPolyline
 90
       11
 70
   129
 43
0.0
 10
212252.933
 20
438886.074
 10
212251.564
 20
438885.317
 10
212251.42
 20
438885.299
 10
212250.128
 20
438885.137
 10
212249.855
 20
438885.103
 10
212248.296
 20
438885.229
 10
212246.555
 20
438881.882
 10
212247.368
 20
438880.326
 10
212248.161
 20
438878.859
 10
212248.74
 20
438877.789
 10
212252.933
 20
438886.074
  0
LWPOLYLINE
  5
1347
330
140A
100
AcDbEntity
  8
B-XX-VH-VERHARDING_GESLOTEN-GV
100
AcDbPolyline
 90
       12
 70
   129
 43
0.0
 10
212780.123
 20
438763.42
 10
212781.827
 20
438764.613
 10
212789.687
 20
438769.603
 10
212796.86
 20
438773.884
 10
212802.944
 20
438777.239
 10
212800.142
 20
438782.321
 10
212799.553
 20
438782.023
 10
212790.87
 20
438777.046
 10
212787.852
 20
438775.177
 10
212781.926
 20
438771.508
 10
212777.343
 20
438768.407
 10
212780.123
 20
438763.42
  0
LWPOLYLINE
  5
1348
330
140A
100
AcDbEntity
  8
B-XX-VH-VERHARDING_HALFVERHARDING-GV
100
AcDbPolyline
 90
        7
 70
   129
 43
0.0
 10
212824.67
 20
438795.525
 10
212819.83
 20
438793.334
 10
212819.837
 20
438793.204
 10
212819.908
 20
438791.813
 10
212820.24
 20
438791.964
 10
212825.591
 20
438794.4
 10
212824.67
 20
438795.525
  0
LWPOLYLINE
  5
1349
330
140A
100
AcDbEntity
  8
B-XX-VH-VERHARDING_HALFVERHARDING-GV
100
AcDbPolyline
 90
        2
 70
   128
 43
0.0
 10
212224.283
 20
438831.389
 42
-0.090822
 10
212225.908
 20
438830.002
  0
LWPOLYLINE
  5
134B
330
140A
100
AcDbEntity
  8
B-XX-VH-VERHARDING_HALFVERHARDING-GV
100
AcDbPolyline
 90
        2
 70
   128
 43
0.0
 10
212225.908
 20
438830.002
 42
-0.020737
 10
212226.158
 20
438829.673
  0
LWPOLYLINE
  5
134D
330
140A
100
AcDbEntity
  8
B-XX-VH-VERHARDING_HALFVERHARDING-GV
100
AcDbPolyline
 90
        2
 70
   128
 43
0.0
 10
212226.158
 20
438829.673
 42
-0.072468
 10
212226.937
 20
438828.145
  0
LWPOLYLINE
  5
134F
330
140A
100
AcDbEntity
  8
B-XX-VH-VERHARDING_HALFVERHARDING-GV
100
AcDbPolyline
 90
        4
 70
   128
 43
0.0
 10
212226.937
 20
438828.145
 10
212226.936
 20
438828.201
 10
212227.9
 20
438834.238
 10
212229.586
 20
438838.152
  0
LWPOLYLINE
  5
1350
330
140A
100
AcDbEntity
  8
B-XX-VH-VERHARDING_HALFVERHARDING-GV
100
AcDbPolyline
 90
        2
 70
   128
 43
0.0
 10
212229.586
 20
438838.152
 42
-0.030557
 10
212228.152
 20
438837.349
  0
LWPOLYLINE
  5
1352
330
140A
100
AcDbEntity
  8
B-XX-VH-VERHARDING_HALFVERHARDING-GV
100
AcDbPolyline
 90
        2
 70
   128
 43
0.0
 10
212228.152
 20
438837.349
 42
-0.03248
 10
212226.54
 20
438836.699
  0
LWPOLYLINE
  5
1354
330
140A
100
AcDbEntity
  8
B-XX-VH-VERHARDING_HALFVERHARDING-GV
100
AcDbPolyline
 90
        2
 70
   128
 43
0.0
 10
212226.54
 20
438836.699
 42
-0.053769
 10
212223.735
 20
438836.095
  0
LWPOLYLINE
  5
1356
330
140A
100
AcDbEntity
  8
B-XX-VH-VERHARDING_HALFVERHARDING-GV
100
AcDbPolyline
 90
        2
 70
   128
 43
0.0
 10
212223.735
 20
438836.095
 10
212223.389
 20
438831.814
  0
LWPOLYLINE
  5
1357
330
140A
100
AcDbEntity
  8
B-XX-VH-VERHARDING_HALFVERHARDING-GV
100
AcDbPolyline
 90
        2
 70
   128
 43
0.0
 10
212223.389
 20
438831.814
 42
-0.041656
 10
212224.283
 20
438831.389
  0
LWPOLYLINE
  5
1359
330
140A
100
AcDbEntity
  8
B-XX-VH-VERHARDING_HALFVERHARDING-GV
100
AcDbPolyline
 90
        9
 70
   129
 43
0.0
 10
212443.964
 20
438623.217
 10
212444.761
 20
438623.828
 10
212443.534
 20
438625.131
 10
212441.822
 20
438626.933
 10
212440.422
 20
438628.406
 10
212439.614
 20
438627.804
 10
212439.131
 20
438627.444
 10
212443.636
 20
438622.965
 10
212443.964
 20
438623.217
  0
LWPOLYLINE
  5
135A
330
140A
100
AcDbEntity
  8
B-XX-VH-VERHARDING_OPEN-GV
100
AcDbPolyline
 90
        7
 70
   129
 43
0.0
 10
212262.047
 20
438904.269
 10
212261.153
 20
438904.717
 10
212260.438
 20
438905.075
 10
212258.378
 20
438899.62
 10
212258.557
 20
438899.53
 10
212259.451
 20
438899.083
 10
212262.047
 20
438904.269
  0
LWPOLYLINE
  5
135B
330
140A
100
AcDbEntity
  8
B-XX-VH-VERHARDING_OPEN-GV
100
AcDbPolyline
 90
        8
 70
   129
 43
0.0
 10
212252.216
 20
438877.844
 10
212251.174
 20
438875.849
 10
212248.893
 20
438871.288
 10
212250.1
 20
438871.467
 10
212251.308
 20
438871.646
 10
212253.463
 20
438876.571
 10
212252.952
 20
438877.093
 10
212252.216
 20
438877.844
  0
LWPOLYLINE
  5
135C
330
140A
100
AcDbEntity
  8
B-XX-GR-BEPLANTING_CULTUUR_BOSPLANTSOEN-GV
100
AcDbPolyline
 90
       21
 70
   129
 43
0.0
 10
212721.453
 20
438736.869
 10
212720.345
 20
438728.058
 10
212725.28
 20
438731.711
 10
212731.968
 20
438736.666
 10
212736.074
 20
438739.765
 10
212737.257
 20
438740.527
 10
212743.353
 20
438756.887
 10
212748.504
 20
438767.239
 10
212752.508
 20
438773.941
 10
212757.277
 20
438778.452
 10
212763.254
 20
438781.147
 10
212769.153
 20
438781.608
 10
212776.726
 20
438779.458
 10
212786.515
 20
438775.734
 10
212787.203
 20
438776.868
 10
212788.364
 20
438778.78
 10
212756.84
 20
438797.066
 10
212755.008
 20
438793.607
 10
212721.236
 20
438737.677
 10
212721.024
 20
438737.32
 10
212721.453
 20
438736.869
  0
LWPOLYLINE
  5
135D
330
140A
100
AcDbEntity
  8
B-XX-GR-HOUTWAL-GV
100
AcDbPolyline
 90
       11
 70
   129
 43
0.0
 10
212689.369
 20
438709.499
 10
212679.91
 20
438705.271
 10
212668.963
 20
438700.378
 10
212665.596
 20
438696.526
 10
212676.292
 20
438701.012
 10
212676.303
 20
438701.017
 10
212678.261
 20
438701.983
 10
212686.932
 20
438706.263
 10
212686.935
 20
438706.266
 10
212691.733
 20
438709.827
 10
212689.369
 20
438709.499
  0
LWPOLYLINE
  5
135E
330
140A
100
AcDbEntity
  8
B-XX-GR-HOUTWAL-GV
100
AcDbPolyline
 90
       37
 70
   129
 43
0.0
 10
212698.249
 20
438805.342
 10
212705.148
 20
438813.392
 10
212716.669
 20
438811.935
 10
212727.784
 20
438805.001
 10
212730.034
 20
438794.537
 10
212716.947
 20
438766.962
 10
212709.601
 20
438770.675
 10
212698.881
 20
438761.263
 10
212703.939
 20
438754.647
 10
212713.413
 20
438752.011
 10
212715.924
 20
438742.674
 10
212721.024
 20
438737.32
 10
212721.236
 20
438737.677
 10
212755.008
 20
438793.607
 10
212756.84
 20
438797.066
 10
212738.068
 20
438807.955
 10
212702.477
 20
438829.679
 10
212690.829
 20
438810.357
 10
212635.693
 20
438718.888
 10
212668.963
 20
438700.378
 10
212679.91
 20
438705.271
 10
212667.73
 20
438713.698
 10
212668.517
 20
438714.796
 10
212667.876
 20
438715.138
 10
212651.025
 20
438724.952
 10
212650.053
 20
438725.886
 10
212658.436
 20
438739.195
 10
212657.432
 20
438739.828
 10
212657.922
 20
438740.557
 10
212664.067
 20
438746.236
 10
212669.19
 20
438755.147
 10
212675.247
 20
438757.014
 10
212680.336
 20
438766.818
 10
212679.531
 20
438781.598
 10
212689.836
 20
438776.512
 10
212690.381
 20
438793.054
 10
212698.249
 20
438805.342
  0
LWPOLYLINE
  5
135F
330
140A
100
AcDbEntity
  8
B-XX-GR-HOUTWAL-GV
100
AcDbPolyline
 90
        6
 70
   129
 43
0.0
 10
212485.339
 20
438744.711
 10
212488.285
 20
438742.601
 10
212488.522
 20
438742.439
 10
212519.827
 20
438783.725
 10
212516.115
 20
438786.01
 10
212485.339
 20
438744.711
  0
LWPOLYLINE
  5
1360
330
140A
100
AcDbEntity
  8
B-XX-OG-TERREIN_CULTUURSCHEIDING-GV
100
AcDbPolyline
 90
       12
 70
   129
 43
0.0
 10
212464.586
 20
438602.157
 10
212465.751
 20
438600.407
 10
212466.834
 20
438598.821
 10
212467.195
 20
438597.476
 10
212467.266
 20
438596.097
 10
212467.217
 20
438595.489
 10
212468.106
 20
438595.39
 10
212468.052
 20
438597.123
 10
212467.702
 20
438598.876
 10
212466.776
 20
438600.505
 10
212465.012
 20
438602.739
 10
212464.586
 20
438602.157
  0
LWPOLYLINE
  5
1361
330
140A
100
AcDbEntity
  8
B-XX-OG-TERREIN_ERF-GV
100
AcDbPolyline
 90
       13
 70
   129
 43
0.0
 10
212287.656
 20
438901.75
 10
212287.104
 20
438900.919
 10
212286.346
 20
438900.608
 10
212283.138
 20
438902.088
 10
212282.757
 20
438902.984
 10
212283.229
 20
438903.963
 10
212280.863
 20
438905.146
 10
212283.488
 20
438910.445
 10
212283.98
 20
438910.201
 10
212286.118
 20
438914.473
 10
212294.829
 20
438910.116
 10
212290.046
 20
438900.555
 10
212287.656
 20
438901.75
  0
LWPOLYLINE
  5
1362
330
140A
100
AcDbEntity
  8
B-XX-OG-TERREIN_ERF-GV
100
AcDbPolyline
 90
        9
 70
   129
 43
0.0
 10
212238.068
 20
438915.869
 10
212243.949
 20
438910.483
 10
212243.328
 20
438909.805
 10
212248.624
 20
438904.955
 10
212243.541
 20
438899.406
 10
212240.06
 20
438902.594
 10
212239.492
 20
438901.973
 10
212231.797
 20
438909.021
 10
212238.068
 20
438915.869
  0
LWPOLYLINE
  5
1363
330
140A
100
AcDbEntity
  8
B-XX-OG-TERREIN_ERF-GV
100
AcDbPolyline
 90
       24
 70
   129
 43
0.0
 10
212430.316
 20
438648.365
 10
212431.834
 20
438646.457
 10
212432.315
 20
438645.853
 10
212434.903
 20
438644.906
 10
212436.878
 20
438650.434
 10
212439.964
 20
438657.399
 10
212445.953
 20
438669.853
 10
212454.641
 20
438685.867
 10
212460.618
 20
438698.309
 10
212468.091
 20
438708.868
 10
212469.234
 20
438709.717
 10
212489.112
 20
438697.963
 10
212510.302
 20
438685.777
 10
212530.278
 20
438714.358
 10
212519.665
 20
438721.072
 10
212488.522
 20
438742.439
 10
212488.285
 20
438742.601
 10
212485.339
 20
438744.711
 10
212481.291
 20
438739.278
 10
212464.474
 20
438713.911
 10
212449.317
 20
438684.958
 10
212438.944
 20
438664.686
 10
212430.362
 20
438648.451
 10
212430.316
 20
438648.365
  0
LWPOLYLINE
  5
1364
330
140A
100
AcDbEntity
  8
B-XX-OG-TERREIN_ERF-GV
100
AcDbPolyline
 90
        7
 70
   129
 43
0.0
 10
212509.744
 20
438719.478
 10
212515.053
 20
438715.011
 10
212509.536
 20
438708.456
 10
212504.228
 20
438712.923
 10
212499.599
 20
438716.932
 10
212505.304
 20
438723.153
 10
212509.744
 20
438719.478
  0
LWPOLYLINE
  5
1365
330
140A
100
AcDbEntity
  8
B-XX-OG-TERREIN_ERF-GV
100
AcDbPolyline
 90
        5
 70
   129
 43
0.0
 10
212478.192
 20
438712.831
 10
212488.64
 20
438706.057
 10
212485.237
 20
438700.588
 10
212474.688
 20
438707.206
 10
212478.192
 20
438712.831
  0
LWPOLYLINE
  5
1366
330
140A
100
AcDbEntity
  8
B-XX-OG-TERREIN_ERF-GV
100
AcDbPolyline
 90
        9
 70
   129
 43
0.0
 10
212495.04
 20
438729.787
 10
212497.07
 20
438731.988
 10
212500.717
 20
438728.607
 10
212498.846
 20
438726.46
 10
212503.025
 20
438722.808
 10
212494.025
 20
438712.335
 10
212485.407
 20
438719.605
 10
212494.242
 20
438730.484
 10
212495.04
 20
438729.787
  0
LWPOLYLINE
  5
1367
330
140A
100
AcDbEntity
  8
B-XX-VH-VERHARDING_OPEN-GV
100
AcDbPolyline
 90
        5
 70
   129
 43
0.0
 10
212623.699
 20
438896.623
 10
212597.037
 20
438912.648
 10
212596.725
 20
438912.165
 10
212623.39
 20
438896.109
 10
212623.699
 20
438896.623
  0
LWPOLYLINE
  5
1368
330
140A
100
AcDbEntity
  8
B-XX-OG-TERREIN_ERF-GV
100
AcDbPolyline
 90
       38
 70
   129
 43
0.0
 10
212718.928
 20
438734.64
 10
212719.979
 20
438735.568
 10
212721.453
 20
438736.869
 10
212721.024
 20
438737.32
 10
212715.924
 20
438742.674
 10
212713.413
 20
438752.011
 10
212703.939
 20
438754.647
 10
212698.881
 20
438761.263
 10
212709.601
 20
438770.675
 10
212716.947
 20
438766.962
 10
212730.034
 20
438794.537
 10
212727.784
 20
438805.001
 10
212716.669
 20
438811.935
 10
212705.148
 20
438813.392
 10
212698.249
 20
438805.342
 10
212690.381
 20
438793.054
 10
212689.836
 20
438776.512
 10
212679.531
 20
438781.598
 10
212680.336
 20
438766.818
 10
212675.247
 20
438757.014
 10
212669.19
 20
438755.147
 10
212664.067
 20
438746.236
 10
212657.922
 20
438740.557
 10
212657.432
 20
438739.828
 10
212658.436
 20
438739.195
 10
212650.053
 20
438725.886
 10
212651.025
 20
438724.952
 10
212667.876
 20
438715.138
 10
212668.517
 20
438714.796
 10
212670.846
 20
438718.046
 10
212682.758
 20
438709.646
 10
212679.91
 20
438705.271
 10
212689.369
 20
438709.499
 10
212691.733
 20
438709.827
 10
212704.891
 20
438717.467
 10
212707.745
 20
438719.302
 10
212714.195
 20
438727.177
 10
212718.928
 20
438734.64
  0
LWPOLYLINE
  5
1369
330
140A
100
AcDbEntity
  8
B-XX-OG-TERREIN_ERF-GV
100
AcDbPolyline
 90
        5
 70
   129
 43
0.0
 10
212690.115
 20
438739.996
 10
212685.786
 20
438732.363
 10
212680.39
 20
438735.424
 10
212684.718
 20
438743.057
 10
212690.115
 20
438739.996
  0
LWPOLYLINE
  5
136A
330
140A
100
AcDbEntity
  8
B-XX-OG-TERREIN_ERF-GV
100
AcDbPolyline
 90
        5
 70
   129
 43
0.0
 10
212694.796
 20
438721.98
 10
212689.564
 20
438712.326
 10
212680.907
 20
438717.018
 10
212686.139
 20
438726.672
 10
212694.796
 20
438721.98
  0
LWPOLYLINE
  5
136B
330
140A
100
AcDbEntity
  8
B-XX-OG-TERREIN_ERF-GV
100
AcDbPolyline
 90
       18
 70
   129
 43
0.0
 10
212452.897
 20
438622.147
 10
212455.696
 20
438619.245
 10
212457.538
 20
438617.363
 10
212467.967
 20
438606.707
 10
212470.841
 20
438603.872
 10
212473.223
 20
438602.268
 10
212474.23
 20
438601.86
 10
212477.19
 20
438601.249
 10
212479.426
 20
438601.187
 10
212481.768
 20
438601.613
 10
212488.076
 20
438605.333
 10
212490.831
 20
438606.836
 10
212505.691
 20
438614.945
 10
212486.423
 20
438650.809
 10
212475.453
 20
438634.941
 10
212453.526
 20
438623.278
 10
212452.355
 20
438622.709
 10
212452.897
 20
438622.147
  0
LWPOLYLINE
  5
136C
330
140A
100
AcDbEntity
  8
B-XX-OG-TERREIN_ERF-GV
100
AcDbPolyline
 90
       15
 70
   129
 43
0.0
 10
212478.907
 20
438617.382
 10
212479.193
 20
438616.866
 10
212476.776
 20
438615.53
 10
212476.472
 20
438616.08
 10
212472.531
 20
438613.974
 10
212469.371
 20
438619.885
 10
212469.723
 20
438620.075
 10
212466.222
 20
438626.583
 10
212470.514
 20
438629.021
 10
212473.016
 20
438630.386
 10
212476.464
 20
438623.675
 10
212476.686
 20
438623.259
 10
212479.406
 20
438618.173
 10
212479.624
 20
438617.765
 10
212478.907
 20
438617.382
  0
LWPOLYLINE
  5
136D
330
140A
100
AcDbEntity
  8
B-XX-OG-TERREIN_ERF-GV
100
AcDbPolyline
 90
       28
 70
   129
 43
0.0
 10
212440.605
 20
438578.78
 10
212443.21
 20
438580.118
 10
212465.641
 20
438592.054
 10
212466.623
 20
438592.965
 10
212467.121
 20
438594.294
 10
212467.217
 20
438595.489
 10
212467.266
 20
438596.097
 10
212467.195
 20
438597.476
 10
212466.834
 20
438598.821
 10
212465.751
 20
438600.407
 10
212464.586
 20
438602.157
 10
212463.99
 20
438602.419
 10
212459.729
 20
438606.736
 10
212454.537
 20
438611.994
 10
212443.964
 20
438623.217
 10
212443.636
 20
438622.965
 10
212439.131
 20
438627.444
 10
212436.747
 20
438629.634
 10
212430.357
 20
438636.442
 10
212427.076
 20
438638.961
 10
212425.667
 20
438640.043
 10
212425.583
 20
438637.852
 10
212425.562
 20
438637.315
 10
212411.559
 20
438620.445
 10
212428.067
 20
438599.044
 10
212422.424
 20
438591.602
 10
212434.929
 20
438575.866
 10
212440.605
 20
438578.78
  0
LWPOLYLINE
  5
136E
330
140A
100
AcDbEntity
  8
B-XX-OG-TERREIN_ERF-GV
100
AcDbPolyline
 90
       11
 70
   129
 43
0.0
 10
212451.745
 20
438600.622
 10
212450.955
 20
438602.075
 10
212458.125
 20
438605.972
 10
212463.025
 20
438596.958
 10
212455.855
 20
438593.06
 10
212455.387
 20
438593.921
 10
212452.116
 20
438592.193
 10
212450.644
 20
438592.584
 10
212447.97
 20
438597.188
 10
212448.67
 20
438598.827
 10
212451.745
 20
438600.622
  0
LWPOLYLINE
  5
136F
330
140A
100
AcDbEntity
  8
B-XX-OG-TERREIN_ERF-GV
100
AcDbPolyline
 90
        5
 70
   129
 43
0.0
 10
212421.869
 20
438631.683
 10
212422.701
 20
438632.794
 10
212423.816
 20
438631.754
 10
212422.984
 20
438630.643
 10
212421.869
 20
438631.683
  0
LWPOLYLINE
  5
1370
330
140A
100
AcDbEntity
  8
B-XX-OG-TERREIN_ERF-GV
100
AcDbPolyline
 90
        9
 70
   129
 43
0.0
 10
212439.93
 20
438613.412
 10
212437.022
 20
438617.574
 10
212442.614
 20
438621.712
 10
212445.669
 20
438617.444
 10
212446.706
 20
438618.172
 10
212452.031
 20
438610.578
 10
212443.818
 20
438604.762
 10
212438.395
 20
438612.333
 10
212439.93
 20
438613.412
  0
LWPOLYLINE
  5
1371
330
140A
100
AcDbEntity
  8
B-XX-OG-TERREIN_ERF-GV
100
AcDbPolyline
 90
        7
 70
   129
 43
0.0
 10
212442.521
 20
438599.969
 10
212436.786
 20
438595.725
 10
212433.597
 20
438593.365
 10
212429.649
 20
438598.699
 10
212439.66
 20
438606.109
 10
212443.608
 20
438600.774
 10
212442.521
 20
438599.969
  0
LWPOLYLINE
  5
1372
330
140A
100
AcDbEntity
  8
B-XX-OG-TERREIN_ERF-GV
100
AcDbPolyline
 90
       13
 70
   129
 43
0.0
 10
212417.771
 20
438566.737
 10
212390.77
 20
438595.644
 10
212380.691
 20
438583.62
 10
212344.928
 20
438539.09
 10
212332.61
 20
438525.563
 10
212327.287
 20
438520.232
 10
212327.522
 20
438519.252
 10
212339.262
 20
438524.788
 10
212376.722
 20
438545.26
 10
212385.614
 20
438549.84
 10
212397.628
 20
438556.019
 10
212405.421
 20
438560.166
 10
212417.771
 20
438566.737
  0
LWPOLYLINE
  5
1373
330
140A
100
AcDbEntity
  8
B-XX-OG-TERREIN_ERF-GV
100
AcDbPolyline
 90
        5
 70
   129
 43
0.0
 10
212378.174
 20
438564.078
 10
212383.465
 20
438554.218
 10
212375.457
 20
438549.921
 10
212370.166
 20
438559.781
 10
212378.174
 20
438564.078
  0
LWPOLYLINE
  5
1374
330
140A
100
AcDbEntity
  8
B-XX-OG-TERREIN_ERF-GV
100
AcDbPolyline
 90
        5
 70
   129
 43
0.0
 10
212375.162
 20
438574.002
 10
212386.146
 20
438579.963
 10
212389.362
 20
438574.036
 10
212378.378
 20
438568.076
 10
212375.162
 20
438574.002
  0
LWPOLYLINE
  5
1375
330
140A
100
AcDbEntity
  8
B-XX-OG-TERREIN_ERF-GV
100
AcDbPolyline
 90
        2
 70
   128
 43
0.0
 10
212229.346
 20
438798.297
 42
-0.018125
 10
212226.94
 20
438806.579
  0
LWPOLYLINE
  5
1377
330
140A
100
AcDbEntity
  8
B-XX-OG-TERREIN_ERF-GV
100
AcDbPolyline
 90
        2
 70
   128
 43
0.0
 10
212226.94
 20
438806.579
 42
-0.053486
 10
212223.389
 20
438831.814
  0
LWPOLYLINE
  5
1379
330
140A
100
AcDbEntity
  8
B-XX-OG-TERREIN_ERF-GV
100
AcDbPolyline
 90
        2
 70
   128
 43
0.0
 10
212223.389
 20
438831.814
 10
212223.735
 20
438836.095
  0
LWPOLYLINE
  5
137A
330
140A
100
AcDbEntity
  8
B-XX-OG-BEBOUWING-GV
100
AcDbPolyline
 90
        9
 70
   129
 43
0.0
 10
212445.669
 20
438617.444
 10
212442.614
 20
438621.712
 10
212437.022
 20
438617.574
 10
212439.93
 20
438613.412
 10
212438.395
 20
438612.333
 10
212443.818
 20
438604.762
 10
212452.031
 20
438610.578
 10
212446.706
 20
438618.172
 10
212445.669
 20
438617.444
  0
LWPOLYLINE
  5
137B
330
140A
100
AcDbEntity
  8
B-XX-OG-BEBOUWING-GV
100
AcDbPolyline
 90
        5
 70
   129
 43
0.0
 10
212690.115
 20
438739.996
 10
212684.718
 20
438743.057
 10
212680.39
 20
438735.424
 10
212685.786
 20
438732.363
 10
212690.115
 20
438739.996
  0
TEXT
  5
137C
330
140A
100
AcDbEntity
  8
B-XX-OG-BEBOUWING-T18
100
AcDbText
 10
212472.774431
 20
438617.619611
 30
0.0
 40
1.8
  1
8a
 50
28.1
  7
NLCS-ISO-M-T18
 72
     1
 11
212473.462
 21
438619.007
 31
0.0
100
AcDbText
 73
     2
  0
LWPOLYLINE
  5
137D
330
140A
100
AcDbEntity
  8
B-XX-OG-BEBOUWING-GV
100
AcDbPolyline
 90
       15
 70
   129
 43
0.0
 10
212476.472
 20
438616.08
 10
212476.776
 20
438615.53
 10
212479.193
 20
438616.866
 10
212478.907
 20
438617.382
 10
212479.624
 20
438617.765
 10
212479.406
 20
438618.173
 10
212476.686
 20
438623.259
 10
212476.464
 20
438623.675
 10
212473.016
 20
438630.386
 10
212470.514
 20
438629.021
 10
212466.222
 20
438626.583
 10
212469.723
 20
438620.075
 10
212469.371
 20
438619.885
 10
212472.531
 20
438613.974
 10
212476.472
 20
438616.08
  0
LWPOLYLINE
  5
137E
330
140A
100
AcDbEntity
  8
B-XX-OG-BEBOUWING-GV
100
AcDbPolyline
 90
        9
 70
   129
 43
0.0
 10
212498.846
 20
438726.46
 10
212500.717
 20
438728.607
 10
212497.07
 20
438731.988
 10
212495.04
 20
438729.787
 10
212494.242
 20
438730.484
 10
212485.407
 20
438719.605
 10
212494.025
 20
438712.335
 10
212503.025
 20
438722.808
 10
212498.846
 20
438726.46
  0
TEXT
  5
137F
330
140A
100
AcDbEntity
  8
B-XX-OG-BEBOUWING-T18
100
AcDbText
 10
212685.42776
 20
438718.28596
 30
0.0
 40
1.8
  1
6
 50
331.6
  7
NLCS-ISO-M-T18
 72
     1
 11
212686.41
 21
438718.778
 31
0.0
100
AcDbText
 73
     2
  0
LWPOLYLINE
  5
1380
330
140A
100
AcDbEntity
  8
B-XX-OG-BEBOUWING-GV
100
AcDbPolyline
 90
        5
 70
   129
 43
0.0
 10
212694.796
 20
438721.98
 10
212686.139
 20
438726.672
 10
212680.907
 20
438717.018
 10
212689.564
 20
438712.326
 10
212694.796
 20
438721.98
  0
TEXT
  5
1381
330
140A
100
AcDbEntity
  8
B-XX-OG-BEBOUWING-T18
100
AcDbText
 10
212240.69603
 20
438906.215938
 30
0.0
 40
1.8
  1
3-3a
 50
317.5
  7
NLCS-ISO-M-T18
 72
     1
 11
212243.162
 21
438905.177
 31
0.0
100
AcDbText
 73
     2
  0
LWPOLYLINE
  5
1382
330
140A
100
AcDbEntity
  8
B-XX-OG-BEBOUWING-GV
100
AcDbPolyline
 90
        9
 70
   129
 43
0.0
 10
212238.068
 20
438915.869
 10
212231.797
 20
438909.021
 10
212239.492
 20
438901.973
 10
212240.06
 20
438902.594
 10
212243.541
 20
438899.406
 10
212248.624
 20
438904.955
 10
212243.328
 20
438909.805
 10
212243.949
 20
438910.483
 10
212238.068
 20
438915.869
  0
LWPOLYLINE
  5
1383
330
140A
100
AcDbEntity
  8
B-XX-OG-BEBOUWING-GV
100
AcDbPolyline
 90
        7
 70
   129
 43
0.0
 10
212259.087
 20
438887.788
 10
212253.772
 20
438877.163
 10
212268.336
 20
438869.736
 10
212269.513
 20
438872.133
 10
212272.249
 20
438877.704
 10
212273.566
 20
438880.385
 10
212259.087
 20
438887.788
  0
LWPOLYLINE
  5
1384
330
140A
100
AcDbEntity
  8
B-XX-OG-BEBOUWING-GV
100
AcDbPolyline
 90
        6
 70
   129
 43
0.0
 10
212668.517
 20
438714.796
 10
212667.73
 20
438713.698
 10
212679.91
 20
438705.271
 10
212682.758
 20
438709.646
 10
212670.846
 20
438718.046
 10
212668.517
 20
438714.796
  0
LWPOLYLINE
  5
1385
330
140A
100
AcDbEntity
  8
B-XX-OG-BEBOUWING-GV
100
AcDbPolyline
 90
        7
 70
   129
 43
0.0
 10
212436.786
 20
438595.725
 10
212442.521
 20
438599.969
 10
212443.608
 20
438600.774
 10
212439.66
 20
438606.109
 10
212429.649
 20
438598.699
 10
212433.597
 20
438593.365
 10
212436.786
 20
438595.725
  0
TEXT
  5
1386
330
140A
100
AcDbEntity
  8
B-XX-OG-BEBOUWING-T18
100
AcDbText
 10
212508.337388
 20
438714.223369
 30
0.0
 40
1.8
  1
8
 50
319.9
  7
NLCS-ISO-M-T18
 72
     1
 11
212509.399
 21
438714.506
 31
0.0
100
AcDbText
 73
     2
  0
LWPOLYLINE
  5
1387
330
140A
100
AcDbEntity
  8
B-XX-OG-BEBOUWING-GV
100
AcDbPolyline
 90
        7
 70
   129
 43
0.0
 10
212504.228
 20
438712.923
 10
212509.536
 20
438708.456
 10
212515.053
 20
438715.011
 10
212509.744
 20
438719.478
 10
212505.304
 20
438723.153
 10
212499.599
 20
438716.932
 10
212504.228
 20
438712.923
  0
TEXT
  5
1388
330
140A
100
AcDbEntity
  8
B-XX-OG-BEBOUWING-T18
100
AcDbText
 10
212454.36004
 20
438598.3499
 30
0.0
 40
1.8
  1
43
 50
28.5
  7
NLCS-ISO-M-T18
 72
     1
 11
212455.117
 21
438599.785
 31
0.0
100
AcDbText
 73
     2
  0
LWPOLYLINE
  5
1389
330
140A
100
AcDbEntity
  8
B-XX-OG-BEBOUWING-GV
100
AcDbPolyline
 90
       11
 70
   129
 43
0.0
 10
212455.387
 20
438593.921
 10
212455.855
 20
438593.06
 10
212463.025
 20
438596.958
 10
212458.125
 20
438605.972
 10
212450.955
 20
438602.075
 10
212451.745
 20
438600.622
 10
212448.67
 20
438598.827
 10
212447.97
 20
438597.188
 10
212450.644
 20
438592.584
 10
212452.116
 20
438592.193
 10
212455.387
 20
438593.921
  0
LWPOLYLINE
  5
138A
330
140A
100
AcDbEntity
  8
B-XX-OG-BEBOUWING-GV
100
AcDbPolyline
 90
        5
 70
   129
 43
0.0
 10
212375.162
 20
438574.002
 10
212378.378
 20
438568.076
 10
212389.362
 20
438574.036
 10
212386.146
 20
438579.963
 10
212375.162
 20
438574.002
  0
TEXT
  5
138B
330
140A
100
AcDbEntity
  8
B-XX-OG-BEBOUWING-T18
100
AcDbText
 10
212376.274171
 20
438553.877942
 30
0.0
 40
1.8
  1
41
 50
28.2
  7
NLCS-ISO-M-T18
 72
     1
 11
212376.88
 21
438555.224
 31
0.0
100
AcDbText
 73
     2
  0
LWPOLYLINE
  5
138C
330
140A
100
AcDbEntity
  8
B-XX-OG-BEBOUWING-GV
100
AcDbPolyline
 90
        5
 70
   129
 43
0.0
 10
212378.174
 20
438564.078
 10
212370.166
 20
438559.781
 10
212375.457
 20
438549.921
 10
212383.465
 20
438554.218
 10
212378.174
 20
438564.078
  0
TEXT
  5
138D
330
140A
100
AcDbEntity
  8
B-XX-OG-BEBOUWING-T18
100
AcDbText
 10
212285.42953
 20
438906.77398
 30
0.0
 40
1.8
  1
2
 50
333.6
  7
NLCS-ISO-M-T18
 72
     1
 11
212286.394
 21
438907.3
 31
0.0
100
AcDbText
 73
     2
  0
LWPOLYLINE
  5
138E
330
140A
100
AcDbEntity
  8
B-XX-OG-BEBOUWING-GV
100
AcDbPolyline
 90
       13
 70
   129
 43
0.0
 10
212283.229
 20
438903.963
 10
212282.757
 20
438902.984
 10
212283.138
 20
438902.088
 10
212286.346
 20
438900.608
 10
212287.104
 20
438900.919
 10
212287.656
 20
438901.75
 10
212290.046
 20
438900.555
 10
212294.829
 20
438910.116
 10
212286.118
 20
438914.473
 10
212283.98
 20
438910.201
 10
212283.488
 20
438910.445
 10
212280.863
 20
438905.146
 10
212283.229
 20
438903.963
  0
LWPOLYLINE
  5
138F
330
140A
100
AcDbEntity
  8
B-XX-OG-BEBOUWING-GV
100
AcDbPolyline
 90
        5
 70
   129
 43
0.0
 10
212478.192
 20
438712.831
 10
212474.688
 20
438707.206
 10
212485.237
 20
438700.588
 10
212488.64
 20
438706.057
 10
212478.192
 20
438712.831
  0
TEXT
  5
1396
330
140A
100
AcDbEntity
  8
0
100
AcDbText
 10
212241.135
 20
438919.685
 30
0.0
 40
1.8
  1
428
 51
10.0
  7
NLCS-ISO
 72
     1
 11
212243.115
 21
438920.585
 31
0.0
100
AcDbText
 73
     2
  0
LWPOLYLINE
  5
1397
330
140A
100
AcDbEntity
  8
B-XX-KG-GRENS_PERCEEL-GV
100
AcDbPolyline
 90
        9
 70
   129
 43
0.0
 10
212567.099
 20
438753.92
 10
212580.485
 20
438775.227
 10
212601.259
 20
438808.383
 10
212610.624
 20
438822.865
 10
212575.913
 20
438844.406
 10
212532.719
 20
438775.712
 10
212559.456
 20
438758.765
 10
212566.358
 20
438754.39
 10
212567.099
 20
438753.92
  0
TEXT
  5
1398
330
140A
100
AcDbEntity
  8
0
100
AcDbText
 10
212574.433
 20
438801.413
 30
0.0
 40
1.8
  1
356
 51
10.0
  7
NLCS-ISO
 72
     1
 11
212576.323
 21
438802.313
 31
0.0
100
AcDbText
 73
     2
  0
LWPOLYLINE
  5
1399
330
140A
100
AcDbEntity
  8
B-XX-KG-GRENS_PERCEEL-GV
100
AcDbPolyline
 90
       13
 70
   129
 43
0.0
 10
212612.914
 20
438727.188
 10
212637.156
 20
438740.915
 10
212654.191
 20
438750.736
 10
212669.49
 20
438776.92
 10
212689.192
 20
438809.281
 10
212703.93
 20
438833.427
 10
212701.951
 20
438834.55
 10
212693.17
 20
438820.146
 10
212673.868
 20
438788.162
 10
212652.136
 20
438752.672
 10
212616.259
 20
438731.989
 10
212610.423
 20
438728.635
 10
212612.914
 20
438727.188
  0
TEXT
  5
139A
330
140A
100
AcDbEntity
  8
0
100
AcDbText
 10
212665.68
 20
438775.919
 30
0.0
 40
1.8
  1
1004
 51
10.0
  7
NLCS-ISO
 72
     1
 11
212668.11
 21
438776.819
 31
0.0
100
AcDbText
 73
     2
  0
LWPOLYLINE
  5
139B
330
140A
100
AcDbEntity
  8
B-XX-KG-GRENS_PERCEEL-GV
100
AcDbPolyline
 90
       18
 70
   129
 43
0.0
 10
212671.005
 20
438699.8
 10
212654.48
 20
438707.638
 10
212636.438
 20
438717.558
 10
212662.303
 20
438759.861
 10
212686.392
 20
438799.446
 10
212705.991
 20
438831.361
 10
212706.399
 20
438832.025
 10
212703.93
 20
438833.427
 10
212689.192
 20
438809.281
 10
212669.49
 20
438776.92
 10
212654.191
 20
438750.736
 10
212637.156
 20
438740.915
 10
212612.914
 20
438727.188
 10
212635.338
 20
438714.161
 10
212640.05
 20
438711.765
 10
212655.409
 20
438703.771
 10
212666.93
 20
438697.933
 10
212671.005
 20
438699.8
  0
TEXT
  5
139C
330
140A
100
AcDbEntity
  8
0
100
AcDbText
 10
212671.944
 20
438781.548
 30
0.0
 40
1.8
  1
1005
 51
10.0
  7
NLCS-ISO
 72
     1
 11
212674.284
 21
438782.448
 31
0.0
100
AcDbText
 73
     2
  0
LWPOLYLINE
  5
139D
330
140A
100
AcDbEntity
  8
B-XX-KG-GRENS_PERCEEL-GV
100
AcDbPolyline
 90
       14
 70
   129
 43
0.0
 10
212567.099
 20
438753.92
 10
212587.668
 20
438741.85
 10
212610.423
 20
438728.635
 10
212616.259
 20
438731.989
 10
212652.136
 20
438752.672
 10
212673.868
 20
438788.162
 10
212693.17
 20
438820.146
 10
212701.951
 20
438834.55
 10
212640.3
 20
438869.557
 10
212621.822
 20
438840.18
 10
212610.624
 20
438822.865
 10
212601.259
 20
438808.383
 10
212580.485
 20
438775.227
 10
212567.099
 20
438753.92
  0
TEXT
  5
139E
330
140A
100
AcDbEntity
  8
0
100
AcDbText
 10
212631.454
 20
438783.909
 30
0.0
 40
1.8
  1
1009
 51
10.0
  7
NLCS-ISO
 72
     1
 11
212633.794
 21
438784.809
 31
0.0
100
AcDbText
 73
     2
  0
TEXT
  5
139F
330
140A
100
AcDbEntity
  8
0
100
AcDbText
 10
212274.246
 20
438565.323
 30
0.0
 40
1.8
  1
951
 51
10.0
  7
NLCS-ISO
 72
     1
 11
212275.956
 21
438566.223
 31
0.0
100
AcDbText
 73
     2
  0
TEXT
  5
13A0
330
140A
100
AcDbEntity
  8
0
100
AcDbText
 10
212759.449
 20
438917.099
 30
0.0
 40
1.8
  1
1025
 51
10.0
  7
NLCS-ISO
 72
     1
 11
212761.789
 21
438917.999
 31
0.0
100
AcDbText
 73
     2
  0
TEXT
  5
13A1
330
140A
100
AcDbEntity
  8
0
100
AcDbText
 10
212739.922
 20
438591.71
 30
0.0
 40
1.8
  1
340
 51
10.0
  7
NLCS-ISO
 72
     1
 11
212741.902
 21
438592.61
 31
0.0
100
AcDbText
 73
     2
  0
TEXT
  5
13A2
330
140A
100
AcDbEntity
  8
0
100
AcDbText
 10
212459.229
 20
438796.206
 30
0.0
 40
1.8
  1
281
 51
10.0
  7
NLCS-ISO
 72
     1
 11
212460.939
 21
438797.106
 31
0.0
100
AcDbText
 73
     2
  0
LWPOLYLINE
  5
13A3
330
140A
100
AcDbEntity
  8
B-XX-KG-GRENS_PERCEEL-GV
100
AcDbPolyline
 90
       12
 70
   129
 43
0.0
 10
212442.92
 20
438855.753
 10
212378.287
 20
438904.494
 10
212359.868
 20
438865.486
 10
212314.622
 20
438771.379
 10
212316.888
 20
438769.359
 10
212326.427
 20
438760.106
 10
212335.491
 20
438751.277
 10
212353.175
 20
438732.834
 10
212374.128
 20
438710.472
 10
212393.196
 20
438750.471
 10
212418.875
 20
438805.022
 10
212442.92
 20
438855.753
  0
TEXT
  5
13A4
330
140A
100
AcDbEntity
  8
0
100
AcDbText
 10
212379.234
 20
438808.357
 30
0.0
 40
1.8
  1
280
 51
10.0
  7
NLCS-ISO
 72
     1
 11
212381.124
 21
438809.257
 31
0.0
100
AcDbText
 73
     2
  0
TEXT
  5
13A5
330
140A
100
AcDbEntity
  8
0
100
AcDbText
 10
212804.581
 20
438704.423
 30
0.0
 40
1.8
  1
295
 51
10.0
  7
NLCS-ISO
 72
     1
 11
212806.471
 21
438705.323
 31
0.0
100
AcDbText
 73
     2
  0
LWPOLYLINE
  5
13A6
330
140A
100
AcDbEntity
  8
B-XX-KG-GRENS_PERCEEL-GV
100
AcDbPolyline
 90
       12
 70
   129
 43
0.0
 10
212327.148
 20
438519.051
 10
212329.496
 20
438520.314
 10
212347.16
 20
438541.659
 10
212354.865
 20
438550.826
 10
212374.849
 20
438574.725
 10
212392.044
 20
438595.211
 10
212398.047
 20
438602.363
 10
212400.625
 20
438605.298
 10
212394.494
 20
438601.883
 10
212377.132
 20
438580.298
 10
212353.655
 20
438551.681
 10
212327.148
 20
438519.051
  0
TEXT
  5
13A7
330
140A
100
AcDbEntity
  8
0
100
AcDbText
 10
212360.805
 20
438560.165
 30
0.0
 40
1.8
  1
265
 51
10.0
  7
NLCS-ISO
 72
     1
 11
212362.695
 21
438561.065
 31
0.0
100
AcDbText
 73
     2
  0
LWPOLYLINE
  5
13A8
330
140A
100
AcDbEntity
  8
B-XX-KG-GRENS_PERCEEL-GV
100
AcDbPolyline
 90
       16
 70
   129
 43
0.0
 10
212447.908
 20
438618.672
 10
212446.815
 20
438618.129
 10
212438.555
 20
438626.469
 10
212416.052
 20
438613.89
 10
212400.625
 20
438605.298
 10
212398.047
 20
438602.363
 10
212392.044
 20
438595.211
 10
212418.139
 20
438567.197
 10
212426.578
 20
438571.757
 10
212456.35
 20
438587.701
 10
212466.268
 20
438592.913
 10
212467.145
 20
438594.9
 10
212466.972
 20
438597.079
 10
212466.327
 20
438599.471
 10
212458.204
 20
438608.083
 10
212447.908
 20
438618.672
  0
TEXT
  5
13A9
330
140A
100
AcDbEntity
  8
0
100
AcDbText
 10
212430.573
 20
438597.134
 30
0.0
 40
1.8
  1
268
 51
10.0
  7
NLCS-ISO
 72
     1
 11
212432.463
 21
438598.034
 31
0.0
100
AcDbText
 73
     2
  0
LWPOLYLINE
  5
13AA
330
140A
100
AcDbEntity
  8
B-XX-KG-GRENS_PERCEEL-GV
100
AcDbPolyline
 90
       10
 70
   129
 43
0.0
 10
212763.308
 20
438807.239
 10
212764.548
 20
438809.32
 10
212732.146
 20
438826.968
 10
212706.042
 20
438841.26
 10
212701.951
 20
438834.55
 10
212703.93
 20
438833.427
 10
212706.847
 20
438838.205
 10
212721.634
 20
438829.77
 10
212743.342
 20
438818.113
 10
212763.308
 20
438807.239
  0
TEXT
  5
13AB
330
140A
100
AcDbEntity
  8
0
100
AcDbText
 10
212733.859
 20
438822.401
 30
0.0
 40
1.8
  1
1007
 51
10.0
  7
NLCS-ISO
 72
     1
 11
212736.199
 21
438823.301
 31
0.0
100
AcDbText
 73
     2
  0
LWPOLYLINE
  5
13AC
330
140A
100
AcDbEntity
  8
B-XX-KG-GRENS_PERCEEL-GV
100
AcDbPolyline
 90
        9
 70
   129
 43
0.0
 10
212760.089
 20
438801.841
 10
212763.308
 20
438807.239
 10
212743.342
 20
438818.113
 10
212721.634
 20
438829.77
 10
212706.847
 20
438838.205
 10
212703.93
 20
438833.427
 10
212706.399
 20
438832.025
 10
212705.991
 20
438831.361
 10
212760.089
 20
438801.841
  0
TEXT
  5
13AD
330
140A
100
AcDbEntity
  8
0
100
AcDbText
 10
212732.588
 20
438818.225
 30
0.0
 40
1.8
  1
1006
 51
10.0
  7
NLCS-ISO
 72
     1
 11
212734.928
 21
438819.125
 31
0.0
100
AcDbText
 73
     2
  0
LWPOLYLINE
  5
13AE
330
140A
100
AcDbEntity
  8
B-XX-KG-GRENS_PERCEEL-GV
100
AcDbPolyline
 90
        9
 70
   129
 43
0.0
 10
212418.139
 20
438567.197
 10
212392.044
 20
438595.211
 10
212374.849
 20
438574.725
 10
212354.865
 20
438550.826
 10
212347.16
 20
438541.659
 10
212329.496
 20
438520.314
 10
212361.852
 20
438536.637
 10
212396.588
 20
438555.55
 10
212418.139
 20
438567.197
  0
TEXT
  5
13AF
330
140A
100
AcDbEntity
  8
0
100
AcDbText
 10
212389.992
 20
438576.687
 30
0.0
 40
1.8
  1
267
 51
10.0
  7
NLCS-ISO
 72
     1
 11
212391.882
 21
438577.587
 31
0.0
100
AcDbText
 73
     2
  0
LWPOLYLINE
  5
13B0
330
140A
100
AcDbEntity
  8
B-XX-KG-GRENS_PERCEEL-GV
100
AcDbPolyline
 90
        5
 70
   129
 43
0.0
 10
212436.491
 20
438628.553
 10
212438.555
 20
438626.469
 10
212439.667
 20
438627.09
 10
212437.602
 20
438629.191
 10
212436.491
 20
438628.553
  0
TEXT
  5
13B1
330
140A
100
AcDbEntity
  8
0
100
AcDbText
 10
212436.165
 20
438627.075
 30
0.0
 40
1.8
  1
272
 51
10.0
  7
NLCS-ISO
 72
     1
 11
212438.055
 21
438627.975
 31
0.0
100
AcDbText
 73
     2
  0
LWPOLYLINE
  5
13B2
330
140A
100
AcDbEntity
  8
B-XX-KG-GRENS_PERCEEL-GV
100
AcDbPolyline
 90
       15
 70
   129
 43
0.0
 10
212558.228
 20
438922.682
 10
212552.028
 20
438911.49
 10
212536.14
 20
438886.59
 10
212521.007
 20
438862.245
 10
212506.232
 20
438838.548
 10
212485.753
 20
438806.21
 10
212517.408
 20
438785.654
 10
212532.719
 20
438775.712
 10
212575.913
 20
438844.406
 10
212610.624
 20
438822.865
 10
212621.822
 20
438840.18
 10
212640.3
 20
438869.557
 10
212639.905
 20
438869.781
 10
212558.442
 20
438923.025
 10
212558.228
 20
438922.682
  0
TEXT
  5
13B3
330
140A
100
AcDbEntity
  8
0
100
AcDbText
 10
212550.29
 20
438845.098
 30
0.0
 40
1.8
  1
1010
 51
10.0
  7
NLCS-ISO
 72
     1
 11
212552.45
 21
438845.998
 31
0.0
100
AcDbText
 73
     2
  0
LWPOLYLINE
  5
13B4
330
140A
100
AcDbEntity
  8
B-XX-KG-GRENS_PERCEEL-GV
100
AcDbPolyline
 90
       13
 70
   129
 43
0.0
 10
212327.148
 20
438519.051
 10
212353.655
 20
438551.681
 10
212377.132
 20
438580.298
 10
212394.494
 20
438601.883
 10
212400.625
 20
438605.298
 10
212405.543
 20
438610.896
 10
212393.788
 20
438604.238
 10
212377.352
 20
438583.95
 10
212357.42
 20
438559.416
 10
212356.776
 20
438558.624
 10
212333.722
 20
438530.483
 10
212322.469
 20
438516.533
 10
212327.148
 20
438519.051
  0
TEXT
  5
13B5
330
140A
100
AcDbEntity
  8
0
100
AcDbText
 10
212375.095
 20
438581.245
 30
0.0
 40
1.8
  1
264
 51
10.0
  7
NLCS-ISO
 72
     1
 11
212377.075
 21
438582.145
 31
0.0
100
AcDbText
 73
     2
  0
LWPOLYLINE
  5
13B6
330
140A
100
AcDbEntity
  8
B-XX-KG-GRENS_PERCEEL-GV
100
AcDbPolyline
 90
        7
 70
   129
 43
0.0
 10
212447.908
 20
438618.672
 10
212446.783
 20
438619.828
 10
212444.979
 20
438621.684
 10
212439.667
 20
438627.09
 10
212438.555
 20
438626.469
 10
212446.815
 20
438618.129
 10
212447.908
 20
438618.672
  0
TEXT
  5
13B7
330
140A
100
AcDbEntity
  8
0
100
AcDbText
 10
212444.625
 20
438618.605
 30
0.0
 40
1.8
  1
273
 51
10.0
  7
NLCS-ISO
 72
     1
 11
212446.515
 21
438619.505
 31
0.0
100
AcDbText
 73
     2
  0
LWPOLYLINE
  5
13B8
330
140A
100
AcDbEntity
  8
B-XX-KG-GRENS_PERCEEL-GV
100
AcDbPolyline
 90
       11
 70
   129
 43
0.0
 10
212481.481
 20
438601.174
 10
212483.79
 20
438602.36
 10
212491.322
 20
438606.514
 10
212475.666
 20
438634.837
 10
212453.64
 20
438623.069
 10
212453.814
 20
438622.881
 10
212464.057
 20
438611.733
 10
212471.407
 20
438603.614
 10
212472.941
 20
438602.58
 10
212479.326
 20
438601.1
 10
212481.481
 20
438601.174
  0
TEXT
  5
13B9
330
140A
100
AcDbEntity
  8
0
100
AcDbText
 10
212476.026
 20
438607.6
 30
0.0
 40
1.8
  1
285
 51
10.0
  7
NLCS-ISO
 72
     1
 11
212477.916
 21
438608.5
 31
0.0
100
AcDbText
 73
     2
  0
LWPOLYLINE
  5
13BA
330
140A
100
AcDbEntity
  8
B-XX-KG-GRENS_PERCEEL-GV
100
AcDbPolyline
 90
        7
 70
   129
 43
0.0
 10
212400.625
 20
438605.298
 10
212416.052
 20
438613.89
 10
212438.555
 20
438626.469
 10
212436.491
 20
438628.553
 10
212419.663
 20
438618.894
 10
212405.543
 20
438610.896
 10
212400.625
 20
438605.298
  0
TEXT
  5
13BB
330
140A
100
AcDbEntity
  8
0
100
AcDbText
 10
212411.125
 20
438612.785
 30
0.0
 40
1.8
  1
269
 51
10.0
  7
NLCS-ISO
 72
     1
 11
212413.015
 21
438613.685
 31
0.0
100
AcDbText
 73
     2
  0
TEXT
  5
13BC
330
140A
100
AcDbEntity
  8
0
100
AcDbText
 10
212225.54
 20
438816.687
 30
0.0
 40
1.8
  1
765
 51
10.0
  7
NLCS-ISO
 72
     1
 11
212227.43
 21
438817.587
 31
0.0
100
AcDbText
 73
     2
  0
TEXT
  5
13BD
330
140A
100
AcDbEntity
  8
0
100
AcDbText
 10
212223.182
 20
438716.395
 30
0.0
 40
1.8
  1
880
 51
10.0
  7
NLCS-ISO
 72
     1
 11
212225.072
 21
438717.295
 31
0.0
100
AcDbText
 73
     2
  0
TEXT
  5
13BE
330
140A
100
AcDbEntity
  8
0
100
AcDbText
 10
212774.095
 20
438763.305
 30
0.0
 40
1.8
  1
291
 51
10.0
  7
NLCS-ISO
 72
     1
 11
212775.805
 21
438764.205
 31
0.0
100
AcDbText
 73
     2
  0
LWPOLYLINE
  5
13BF
330
140A
100
AcDbEntity
  8
B-XX-KG-GRENS_PERCEEL-GV
100
AcDbPolyline
 90
       22
 70
   129
 43
0.0
 10
212476.425
 20
438635.656
 10
212492.198
 20
438606.997
 10
212492.688
 20
438607.268
 10
212512.553
 20
438618.225
 10
212540.268
 20
438633.395
 10
212568.104
 20
438647.962
 10
212595.937
 20
438662.739
 10
212613.833
 20
438672.673
 10
212640.133
 20
438685.562
 10
212651.944
 20
438691.066
 10
212666.93
 20
438697.933
 10
212655.409
 20
438703.771
 10
212640.05
 20
438711.765
 10
212635.338
 20
438714.161
 10
212612.914
 20
438727.188
 10
212610.423
 20
438728.635
 10
212587.668
 20
438741.85
 10
212567.099
 20
438753.92
 10
212566.358
 20
438754.39
 10
212527.524
 20
438710.352
 10
212475.71
 20
438636.955
 10
212476.425
 20
438635.656
  0
TEXT
  5
13C0
330
140A
100
AcDbEntity
  8
0
100
AcDbText
 10
212550.005
 20
438664.257
 30
0.0
 40
1.8
  1
594
 51
10.0
  7
NLCS-ISO
 72
     1
 11
212551.985
 21
438665.157
 31
0.0
100
AcDbText
 73
     2
  0
TEXT
  5
13C1
330
140A
100
AcDbEntity
  8
0
100
AcDbText
 10
212607.275
 20
438650.445
 30
0.0
 40
1.8
  1
292
 51
10.0
  7
NLCS-ISO
 72
     1
 11
212609.165
 21
438651.345
 31
0.0
100
AcDbText
 73
     2
  0
LWPOLYLINE
  5
13C2
330
140A
100
AcDbEntity
  8
B-XX-KG-GRENS_PERCEEL-GV
100
AcDbPolyline
 90
       23
 70
   129
 43
0.0
 10
212476.425
 20
438635.656
 10
212475.71
 20
438636.955
 10
212527.524
 20
438710.352
 10
212566.358
 20
438754.39
 10
212559.456
 20
438758.765
 10
212545.393
 20
438738.349
 10
212535.151
 20
438723.407
 10
212525.446
 20
438709.435
 10
212513.141
 20
438691.893
 10
212500.691
 20
438673.499
 10
212489.611
 20
438679.927
 10
212472.022
 20
438690.002
 10
212460.9
 20
438696.023
 10
212456.474
 20
438687.504
 10
212451.122
 20
438677.009
 10
212444.758
 20
438664.401
 10
212436.735
 20
438648.683
 10
212435.186
 20
438645.6
 10
212434.131
 20
438644.645
 10
212441.82
 20
438636.187
 10
212450.478
 20
438626.512
 10
212453.38
 20
438623.351
 10
212476.425
 20
438635.656
  0
TEXT
  5
13C3
330
140A
100
AcDbEntity
  8
0
100
AcDbText
 10
212464.747
 20
438658.946
 30
0.0
 40
1.8
  1
810
 51
10.0
  7
NLCS-ISO
 72
     1
 11
212466.457
 21
438659.846
 31
0.0
100
AcDbText
 73
     2
  0
LWPOLYLINE
  5
13C4
330
140A
100
AcDbEntity
  8
B-XX-KG-GRENS_PERCEEL-GV
100
AcDbPolyline
 90
       11
 70
   129
 43
0.0
 10
212428.218
 20
438636.906
 10
212427.362
 20
438636.113
 10
212424.228
 20
438632.539
 10
212425.118
 20
438631.75
 10
212422.557
 20
438628.677
 10
212421.671
 20
438629.416
 10
212413.845
 20
438620.347
 10
212405.543
 20
438610.896
 10
212419.663
 20
438618.894
 10
212436.491
 20
438628.553
 10
212428.218
 20
438636.906
  0
TEXT
  5
13C5
330
140A
100
AcDbEntity
  8
0
100
AcDbText
 10
212414.085
 20
438619.135
 30
0.0
 40
1.8
  1
270
 51
10.0
  7
NLCS-ISO
 72
     1
 11
212415.975
 21
438620.035
 31
0.0
100
AcDbText
 73
     2
  0
TEXT
  5
13C6
330
140A
100
AcDbEntity
  8
0
100
AcDbText
 10
212805.7
 20
438840.872
 30
0.0
 40
1.8
  1
290
 51
10.0
  7
NLCS-ISO
 72
     1
 11
212807.59
 21
438841.772
 31
0.0
100
AcDbText
 73
     2
  0
LWPOLYLINE
  5
13C7
330
140A
100
AcDbEntity
  8
B-XX-KG-GRENS_PERCEEL-GV
100
AcDbPolyline
 90
       16
 70
   129
 43
0.0
 10
212748.411
 20
438717.476
 10
212746.007
 20
438720.22
 10
212744.546
 20
438722.019
 10
212742.801
 20
438724.614
 10
212742.075
 20
438726.66
 10
212741.636
 20
438729.266
 10
212741.935
 20
438731.909
 10
212742.456
 20
438735.724
 10
212718.818
 20
438718.508
 10
212722.847
 20
438718.182
 10
212727.74
 20
438716.787
 10
212730.511
 20
438715.467
 10
212732.09
 20
438713.953
 10
212733.193
 20
438712.185
 10
212734.085
 20
438710.634
 10
212748.411
 20
438717.476
  0
TEXT
  5
13C8
330
140A
100
AcDbEntity
  8
0
100
AcDbText
 10
212735.128
 20
438720.074
 30
0.0
 40
1.8
  1
293
 51
10.0
  7
NLCS-ISO
 72
     1
 11
212737.018
 21
438720.974
 31
0.0
100
AcDbText
 73
     2
  0
LWPOLYLINE
  5
13C9
330
140A
100
AcDbEntity
  8
B-XX-KG-GRENS_PERCEEL-GV
100
AcDbPolyline
 90
       14
 70
   129
 43
0.0
 10
212671.005
 20
438699.8
 10
212671.9
 20
438700.21
 10
212695.887
 20
438712.122
 10
212698.131
 20
438713.48
 10
212711.717
 20
438722.192
 10
212739.798
 20
438768.602
 10
212755.023
 20
438793.343
 10
212760.089
 20
438801.841
 10
212705.991
 20
438831.361
 10
212686.392
 20
438799.446
 10
212662.303
 20
438759.861
 10
212636.438
 20
438717.558
 10
212654.48
 20
438707.638
 10
212671.005
 20
438699.8
  0
TEXT
  5
13CA
330
140A
100
AcDbEntity
  8
0
100
AcDbText
 10
212706.518
 20
438767.757
 30
0.0
 40
1.8
  1
289
 51
10.0
  7
NLCS-ISO
 72
     1
 11
212708.408
 21
438768.657
 31
0.0
100
AcDbText
 73
     2
  0
LWPOLYLINE
  5
13CB
330
140A
100
AcDbEntity
  8
B-XX-KG-GRENS_PERCEEL-GV
100
AcDbPolyline
 90
        5
 70
   129
 43
0.0
 10
212436.491
 20
438628.553
 10
212437.602
 20
438629.191
 10
212428.984
 20
438637.962
 10
212428.218
 20
438636.906
 10
212436.491
 20
438628.553
  0
TEXT
  5
13CC
330
140A
100
AcDbEntity
  8
0
100
AcDbText
 10
212428.755
 20
438635.315
 30
0.0
 40
1.8
  1
271
 51
10.0
  7
NLCS-ISO
 72
     1
 11
212430.465
 21
438636.215
 31
0.0
100
AcDbText
 73
     2
  0
LWPOLYLINE
  5
13CD
330
140A
100
AcDbEntity
  8
B-XX-KG-GRENS_PERCEEL-GV
100
AcDbPolyline
 90
        9
 70
   129
 43
0.0
 10
212425.755
 20
438637.673
 10
212425.972
 20
438637.448
 10
212420.253
 20
438630.597
 10
212421.671
 20
438629.416
 10
212422.557
 20
438628.677
 10
212425.118
 20
438631.75
 10
212424.228
 20
438632.539
 10
212427.362
 20
438636.113
 10
212425.755
 20
438637.673
  0
TEXT
  5
13CE
330
140A
100
AcDbEntity
  8
0
100
AcDbText
 10
212422.965
 20
438633.305
 30
0.0
 40
1.8
  1
266
 51
10.0
  7
NLCS-ISO
 72
     1
 11
212424.855
 21
438634.205
 31
0.0
100
AcDbText
 73
     2
  0
TEXT
  5
13CF
330
140A
100
AcDbEntity
  8
0
100
AcDbText
 10
212223.427
 20
438914.177
 30
0.0
 40
1.8
  1
402
 51
10.0
  7
NLCS-ISO
 72
     1
 11
212225.407
 21
438915.077
 31
0.0
100
AcDbText
 73
     2
  0
LWPOLYLINE
  5
13D0
330
140A
100
AcDbEntity
  8
B-XX-KG-GRENS_PERCEEL-GV
100
AcDbPolyline
 90
       30
 70
   129
 43
0.0
 10
212435.186
 20
438645.6
 10
212436.735
 20
438648.683
 10
212444.758
 20
438664.401
 10
212451.122
 20
438677.009
 10
212456.474
 20
438687.504
 10
212460.9
 20
438696.023
 10
212472.022
 20
438690.002
 10
212489.611
 20
438679.927
 10
212500.691
 20
438673.499
 10
212513.141
 20
438691.893
 10
212525.446
 20
438709.435
 10
212535.151
 20
438723.407
 10
212545.393
 20
438738.349
 10
212559.456
 20
438758.765
 10
212532.719
 20
438775.712
 10
212517.408
 20
438785.654
 10
212508.315
 20
438775.057
 10
212501.387
 20
438765.866
 10
212490.059
 20
438750.289
 10
212481.583
 20
438738.693
 10
212472.228
 20
438723.753
 10
212461.098
 20
438704.221
 10
212454.411
 20
438691.836
 10
212448.522
 20
438680.249
 10
212443.702
 20
438670.501
 10
212440.194
 20
438663.91
 10
212437.718
 20
438659.087
 10
212434.772
 20
438652.45
 10
212433.061
 20
438647.855
 10
212435.186
 20
438645.6
  0
TEXT
  5
13D1
330
140A
100
AcDbEntity
  8
0
100
AcDbText
 10
212517.275
 20
438747.75
 30
0.0
 40
1.8
  1
381
 51
10.0
  7
NLCS-ISO
 72
     1
 11
212518.985
 21
438748.65
 31
0.0
100
AcDbText
 73
     2
  0
LWPOLYLINE
  5
13D2
330
140A
100
AcDbEntity
  8
B-XX-KG-GRENS_PERCEEL-GV
100
AcDbPolyline
 90
        8
 70
   129
 43
0.0
 10
212453.38
 20
438623.351
 10
212453.64
 20
438623.069
 10
212475.666
 20
438634.837
 10
212491.322
 20
438606.514
 10
212491.813
 20
438606.785
 10
212492.198
 20
438606.997
 10
212476.425
 20
438635.656
 10
212453.38
 20
438623.351
  0
TEXT
  5
13D3
330
140A
100
AcDbEntity
  8
0
100
AcDbText
 10
212476.864
 20
438629.122
 30
0.0
 40
1.8
  1
809
 51
10.0
  7
NLCS-ISO
 72
     1
 11
212478.754
 21
438630.022
 31
0.0
100
AcDbText
 73
     2
  0
ENDSEC
  0
SECTION
  2
OBJECTS
  0
DICTIONARY
  5
140F
330
0
100
AcDbDictionary
281
     1
  3
ACAD_COLOR
350
144B
  3
ACAD_GROUP
350
1438
  3
ACAD_LAYOUT
350
141C
  3
ACAD_MATERIAL
350
1411
  3
ACAD_MLEADERSTYLE
350
144E
  3
ACAD_MLINESTYLE
350
1439
  3
ACAD_PLOTSETTINGS
350
143A
  3
ACAD_PLOTSTYLENAME
350
140E
  3
ACAD_SCALELIST
350
144C
  3
ACAD_TABLESTYLE
350
144D
  3
ACAD_VISUALSTYLE
350
1432
  3
AcadDim
350
14F4
  3
ACDB_RECOMPOSE_DATA
350
14F6
  3
AcDbVariableDictionary
350
1478
  0
DICTIONARY
  5
1425
330
1424
100
AcDbDictionary
280
     1
281
     1
  3
ACAD_LAYERSTATES
360
1426
  0
DICTIONARY
  5
144B
102
{ACAD_REACTORS
330
140F
102
}
330
140F
100
AcDbDictionary
281
     1
  0
DICTIONARY
  5
1438
102
{ACAD_REACTORS
330
140F
102
}
330
140F
100
AcDbDictionary
281
     1
  0
DICTIONARY
  5
141C
102
{ACAD_REACTORS
330
140F
102
}
330
140F
100
AcDbDictionary
281
     1
  3
Layout1
350
1420
  3
Model
350
141B
  0
DICTIONARY
  5
1411
102
{ACAD_REACTORS
330
140F
102
}
330
140F
100
AcDbDictionary
281
     1
  3
ByBlock
350
1443
  3
ByLayer
350
143B
  3
Global
350
1410
  0
DICTIONARY
  5
144E
102
{ACAD_REACTORS
330
140F
102
}
330
140F
100
AcDbDictionary
281
     1
  3
Standard
350
149C
  0
DICTIONARY
  5
1439
102
{ACAD_REACTORS
330
140F
102
}
330
140F
100
AcDbDictionary
281
     1
  3
Standard
350
144F
  0
DICTIONARY
  5
143A
102
{ACAD_REACTORS
330
140F
102
}
330
140F
100
AcDbDictionary
281
     1
  0
ACDBDICTIONARYWDFLT
  5
140E
102
{ACAD_REACTORS
330
140F
102
}
330
140F
100
AcDbDictionary
281
     1
  3
Normal
350
140D
100
AcDbDictionaryWithDefault
340
140D
  0
DICTIONARY
  5
144C
102
{ACAD_REACTORS
330
140F
102
}
330
140F
100
AcDbDictionary
281
     1
  3
A0
350
1453
  3
A1
350
1454
  3
A2
350
1455
  3
A3
350
1456
  3
A4
350
1457
  3
A5
350
1458
  3
A6
350
1459
  3
A7
350
145A
  3
A8
350
145B
  3
A9
350
145C
  3
B0
350
145D
  3
B1
350
145E
  3
B2
350
145F
  3
B3
350
1460
  3
B4
350
1461
  3
B5
350
1462
  3
B6
350
1463
  3
B7
350
1464
  3
B8
350
1465
  3
B9
350
1466
  3
C0
350
1467
  3
C1
350
1468
  3
C2
350
1469
  3
C3
350
146A
  3
C4
350
146B
  3
C5
350
146C
  3
C6
350
146D
  3
C7
350
146E
  3
C8
350
146F
  3
C9
350
1470
  3
D0
350
1471
  3
D1
350
1472
  3
D2
350
1473
  0
DICTIONARY
  5
144D
102
{ACAD_REACTORS
330
140F
102
}
330
140F
100
AcDbDictionary
281
     1
  3
Standard
350
1450
  0
DICTIONARY
  5
1432
102
{ACAD_REACTORS
330
140F
102
}
330
140F
100
AcDbDictionary
281
     1
  3
2dWireframe
350
1431
  3
3D Hidden
350
1491
  3
3dWireframe
350
1452
  3
Basic
350
1490
  3
Brighten
350
1494
  3
ColorChange
350
1498
  3
Conceptual
350
1492
  3
Dim
350
1493
  3
EdgeColorOff
350
149B
  3
Facepattern
350
1497
  3
Flat
350
148C
  3
FlatWithEdges
350
148D
  3
Gouraud
350
148E
  3
GouraudWithEdges
350
148F
  3
JitterOff
350
1499
  3
Linepattern
350
1496
  3
OverhangOff
350
149A
  3
Realistic
350
1451
  3
Thicken
350
1495
  0
XRECORD
  5
14F4
102
{ACAD_REACTORS
330
140F
102
}
330
140F
100
AcDbXrecord
280
     1
 90
   990106
  3
 
 60
     0
 61
     0
 62
     2
 63
     2
 64
     0
 65
     0
 66
     0
 67
     3
 68
     1
 69
     0
 70
     0
 71
     0
 72
     0
 40
0.0
170
     0
  0
XRECORD
  5
14F6
102
{ACAD_REACTORS
330
140F
102
}
330
140F
100
AcDbXrecord
280
     1
 90
        1
330
1450
  0
DICTIONARY
  5
1478
102
{ACAD_REACTORS
330
140F
102
}
330
140F
100
AcDbDictionary
281
     1
  3
CANNOSCALE
350
147C
  3
CMLEADERSTYLE
350
147A
  3
CTABLESTYLE
350
1479
  3
LAYEREVAL
350
147E
  3
LAYERNOTIFY
350
147F
  3
LIGHTINGUNITS
350
147D
  3
MSLTSCALE
350
147B
  0
DICTIONARY
  5
1426
102
{ACAD_REACTORS
330
1425
102
}
330
1425
100
AcDbDictionary
281
     1
  0
LAYOUT
  5
1420
102
{ACAD_XDICTIONARY
360
1421
102
}
102
{ACAD_REACTORS
330
141C
102
}
330
141C
100
AcDbPlotSettings
  1

  2
none_device
  4
Letter_(8.50_x_11.00_Inches)
  6

 40
6.35
 41
6.35
 42
6.350006
 43
6.350006
 44
215.899994
 45
279.399994
 46
0.0
 47
0.0
 48
0.0
 49
0.0
140
0.0
141
0.0
142
1.0
143
1.0
 70
   688
 72
     0
 73
     1
 74
     5
  7

 75
    16
147
1.0
 76
     0
 77
     2
 78
   300
148
0.0
149
0.0
100
AcDbLayout
  1
Layout1
 70
     1
 71
     1
 10
-0.25
 20
-0.25
 11
10.75
 21
8.25
 12
0.0
 22
0.0
 32
0.0
 14
1.049744
 24
0.799667
 34
-0.001526
 15
9.450623
 25
7.200577
 35
0.0
146
0.0
 13
0.0
 23
0.0
 33
0.0
 16
1.0
 26
0.0
 36
0.0
 17
0.0
 27
1.0
 37
0.0
 76
     0
330
141D
1001
ACAD_PSEXT
1000
None
1000
None
1000
Not applicable
1000
The layout will not be plotted unless a new plotter configuration name is selected.
1070
     0
  0
LAYOUT
  5
141B
102
{ACAD_REACTORS
330
141C
102
}
330
141C
100
AcDbPlotSettings
  1

  2
none_device
  4
ANSI_A_(8.50_x_11.00_Inches)
  6

 40
6.35
 41
19.049999
 42
6.350006
 43
19.049988
 44
215.899994
 45
279.399994
 46
0.0
 47
0.0
 48
0.0
 49
0.0
140
0.0
141
0.0
142
1.0
143
2.584895
 70
 11952
 72
     0
 73
     1
 74
     0
  7

 75
     0
147
0.386863
 76
     0
 77
     2
 78
   300
148
0.0
149
0.0
100
AcDbLayout
  1
Model
 70
     1
 71
     0
 10
0.0
 20
0.0
 11
12.0
 21
9.0
 12
0.0
 22
0.0
 32
0.0
 14
0.0
 24
0.0
 34
0.0
 15
0.0
 25
0.0
 35
0.0
146
0.0
 13
0.0
 23
0.0
 33
0.0
 16
1.0
 26
0.0
 36
0.0
 17
0.0
 27
1.0
 37
0.0
 76
     0
330
140A
  0
MATERIAL
  5
1443
102
{ACAD_XDICTIONARY
360
1444
102
}
102
{ACAD_REACTORS
330
1411
102
}
330
1411
100
AcDbMaterial
  1
ByBlock
 72
     0
 43
0.020833
 43
0.0
 43
0.0
 43
0.0
 43
0.0
 43
0.020833
 43
0.0
 43
0.0
 43
0.0
 43
0.0
 43
1.0
 43
0.0
 43
0.0
 43
0.0
 43
0.0
 43
1.0
 77
     0
 47
0.020833
 47
0.0
 47
0.0
 47
0.0
 47
0.0
 47
0.020833
 47
0.0
 47
0.0
 47
0.0
 47
0.0
 47
1.0
 47
0.0
 47
0.0
 47
0.0
 47
0.0
 47
1.0
171
     0
 49
0.020833
 49
0.0
 49
0.0
 49
0.0
 49
0.0
 49
0.020833
 49
0.0
 49
0.0
 49
0.0
 49
0.0
 49
1.0
 49
0.0
 49
0.0
 49
0.0
 49
0.0
 49
1.0
175
     0
142
0.020833
142
0.0
142
0.0
142
0.0
142
0.0
142
0.020833
142
0.0
142
0.0
142
0.0
142
0.0
142
1.0
142
0.0
142
0.0
142
0.0
142
0.0
142
1.0
179
     0
144
0.020833
144
0.0
144
0.0
144
0.0
144
0.0
144
0.020833
144
0.0
144
0.0
144
0.0
144
0.0
144
1.0
144
0.0
144
0.0
144
0.0
144
0.0
144
1.0
147
0.020833
147
0.0
147
0.0
147
0.0
147
0.0
147
0.020833
147
0.0
147
0.0
147
0.0
147
0.0
147
1.0
147
0.0
147
0.0
147
0.0
147
0.0
147
1.0
  0
MATERIAL
  5
143B
102
{ACAD_XDICTIONARY
360
143C
102
}
102
{ACAD_REACTORS
330
1411
102
}
330
1411
100
AcDbMaterial
  1
ByLayer
 72
     0
 43
0.020833
 43
0.0
 43
0.0
 43
0.0
 43
0.0
 43
0.020833
 43
0.0
 43
0.0
 43
0.0
 43
0.0
 43
1.0
 43
0.0
 43
0.0
 43
0.0
 43
0.0
 43
1.0
 77
     0
 47
0.020833
 47
0.0
 47
0.0
 47
0.0
 47
0.0
 47
0.020833
 47
0.0
 47
0.0
 47
0.0
 47
0.0
 47
1.0
 47
0.0
 47
0.0
 47
0.0
 47
0.0
 47
1.0
171
     0
 49
0.020833
 49
0.0
 49
0.0
 49
0.0
 49
0.0
 49
0.020833
 49
0.0
 49
0.0
 49
0.0
 49
0.0
 49
1.0
 49
0.0
 49
0.0
 49
0.0
 49
0.0
 49
1.0
175
     0
142
0.020833
142
0.0
142
0.0
142
0.0
142
0.0
142
0.020833
142
0.0
142
0.0
142
0.0
142
0.0
142
1.0
142
0.0
142
0.0
142
0.0
142
0.0
142
1.0
179
     0
144
0.020833
144
0.0
144
0.0
144
0.0
144
0.0
144
0.020833
144
0.0
144
0.0
144
0.0
144
0.0
144
1.0
144
0.0
144
0.0
144
0.0
144
0.0
144
1.0
147
0.020833
147
0.0
147
0.0
147
0.0
147
0.0
147
0.020833
147
0.0
147
0.0
147
0.0
147
0.0
147
1.0
147
0.0
147
0.0
147
0.0
147
0.0
147
1.0
  0
MATERIAL
  5
1410
102
{ACAD_XDICTIONARY
360
1412
102
}
102
{ACAD_REACTORS
330
1411
102
}
330
1411
100
AcDbMaterial
  1
Global
 72
     0
 43
0.020833
 43
0.0
 43
0.0
 43
0.0
 43
0.0
 43
0.020833
 43
0.0
 43
0.0
 43
0.0
 43
0.0
 43
1.0
 43
0.0
 43
0.0
 43
0.0
 43
0.0
 43
1.0
 77
     0
 47
0.020833
 47
0.0
 47
0.0
 47
0.0
 47
0.0
 47
0.020833
 47
0.0
 47
0.0
 47
0.0
 47
0.0
 47
1.0
 47
0.0
 47
0.0
 47
0.0
 47
0.0
 47
1.0
171
     0
 49
0.020833
 49
0.0
 49
0.0
 49
0.0
 49
0.0
 49
0.020833
 49
0.0
 49
0.0
 49
0.0
 49
0.0
 49
1.0
 49
0.0
 49
0.0
 49
0.0
 49
0.0
 49
1.0
175
     0
142
0.020833
142
0.0
142
0.0
142
0.0
142
0.0
142
0.020833
142
0.0
142
0.0
142
0.0
142
0.0
142
1.0
142
0.0
142
0.0
142
0.0
142
0.0
142
1.0
179
     0
144
0.020833
144
0.0
144
0.0
144
0.0
144
0.0
144
0.020833
144
0.0
144
0.0
144
0.0
144
0.0
144
1.0
144
0.0
144
0.0
144
0.0
144
0.0
144
1.0
147
0.020833
147
0.0
147
0.0
147
0.0
147
0.0
147
0.020833
147
0.0
147
0.0
147
0.0
147
0.0
147
1.0
147
0.0
147
0.0
147
0.0
147
0.0
147
1.0
  0
MLEADERSTYLE
  5
149C
102
{ACAD_REACTORS
330
144E
102
}
330
144E
100
AcDbMLeaderStyle
170
     2
171
     1
172
     0
 90
        2
 40
0.0
 41
0.0
173
     1
 91
-1056964608
340
142B
 92
       -2
290
     1
 42
0.09
291
     1
 43
0.36
  3
Standard
 44
0.18
300

342
1428
174
     1
178
     6
175
     1
176
     0
 93
-1056964608
 45
0.18
292
     0
297
     0
 46
0.18
 94
-1056964608
 47
1.0
 49
1.0
140
1.0
293
     1
141
0.0
294
     1
177
     0
142
1.0
295
     0
296
     0
143
0.125
1001
ACAD_MLEADERVER
1070
     2
  0
MLINESTYLE
  5
144F
102
{ACAD_REACTORS
330
1439
102
}
330
1439
100
AcDbMlineStyle
  2
STANDARD
 70
     0
  3

 62
   256
 51
90.0
 52
90.0
 71
     2
 49
0.5
 62
   256
  6
BYLAYER
 49
-0.5
 62
   256
  6
BYLAYER
  0
ACDBPLACEHOLDER
  5
140D
102
{ACAD_REACTORS
330
140E
102
}
330
140E
  0
SCALE
  5
1453
102
{ACAD_REACTORS
330
144C
102
}
330
144C
100
AcDbScale
 70
     0
300
1:1
140
1.0
141
1.0
290
     1
  0
SCALE
  5
1454
102
{ACAD_REACTORS
330
144C
102
}
330
144C
100
AcDbScale
 70
     0
300
1:2
140
1.0
141
2.0
290
     0
  0
SCALE
  5
1455
102
{ACAD_REACTORS
330
144C
102
}
330
144C
100
AcDbScale
 70
     0
300
1:4
140
1.0
141
4.0
290
     0
  0
SCALE
  5
1456
102
{ACAD_REACTORS
330
144C
102
}
330
144C
100
AcDbScale
 70
     0
300
1:5
140
1.0
141
5.0
290
     0
  0
SCALE
  5
1457
102
{ACAD_REACTORS
330
144C
102
}
330
144C
100
AcDbScale
 70
     0
300
1:8
140
1.0
141
8.0
290
     0
  0
SCALE
  5
1458
102
{ACAD_REACTORS
330
144C
102
}
330
144C
100
AcDbScale
 70
     0
300
1:10
140
1.0
141
10.0
290
     0
  0
SCALE
  5
1459
102
{ACAD_REACTORS
330
144C
102
}
330
144C
100
AcDbScale
 70
     0
300
1:16
140
1.0
141
16.0
290
     0
  0
SCALE
  5
145A
102
{ACAD_REACTORS
330
144C
102
}
330
144C
100
AcDbScale
 70
     0
300
1:20
140
1.0
141
20.0
290
     0
  0
SCALE
  5
145B
102
{ACAD_REACTORS
330
144C
102
}
330
144C
100
AcDbScale
 70
     0
300
1:30
140
1.0
141
30.0
290
     0
  0
SCALE
  5
145C
102
{ACAD_REACTORS
330
144C
102
}
330
144C
100
AcDbScale
 70
     0
300
1:40
140
1.0
141
40.0
290
     0
  0
SCALE
  5
145D
102
{ACAD_REACTORS
330
144C
102
}
330
144C
100
AcDbScale
 70
     0
300
1:50
140
1.0
141
50.0
290
     0
  0
SCALE
  5
145E
102
{ACAD_REACTORS
330
144C
102
}
330
144C
100
AcDbScale
 70
     0
300
1:100
140
1.0
141
100.0
290
     0
  0
SCALE
  5
145F
102
{ACAD_REACTORS
330
144C
102
}
330
144C
100
AcDbScale
 70
     0
300
2:1
140
2.0
141
1.0
290
     0
  0
SCALE
  5
1460
102
{ACAD_REACTORS
330
144C
102
}
330
144C
100
AcDbScale
 70
     0
300
4:1
140
4.0
141
1.0
290
     0
  0
SCALE
  5
1461
102
{ACAD_REACTORS
330
144C
102
}
330
144C
100
AcDbScale
 70
     0
300
8:1
140
8.0
141
1.0
290
     0
  0
SCALE
  5
1462
102
{ACAD_REACTORS
330
144C
102
}
330
144C
100
AcDbScale
 70
     0
300
10:1
140
10.0
141
1.0
290
     0
  0
SCALE
  5
1463
102
{ACAD_REACTORS
330
144C
102
}
330
144C
100
AcDbScale
 70
     0
300
100:1
140
100.0
141
1.0
290
     0
  0
SCALE
  5
1464
102
{ACAD_REACTORS
330
144C
102
}
330
144C
100
AcDbScale
 70
     0
300
1/128" = 1'-0"
140
0.007813
141
12.0
290
     0
  0
SCALE
  5
1465
102
{ACAD_REACTORS
330
144C
102
}
330
144C
100
AcDbScale
 70
     0
300
1/64" = 1'-0"
140
0.015625
141
12.0
290
     0
  0
SCALE
  5
1466
102
{ACAD_REACTORS
330
144C
102
}
330
144C
100
AcDbScale
 70
     0
300
1/32" = 1'-0"
140
0.03125
141
12.0
290
     0
  0
SCALE
  5
1467
102
{ACAD_REACTORS
330
144C
102
}
330
144C
100
AcDbScale
 70
     0
300
1/16" = 1'-0"
140
0.0625
141
12.0
290
     0
  0
SCALE
  5
1468
102
{ACAD_REACTORS
330
144C
102
}
330
144C
100
AcDbScale
 70
     0
300
3/32" = 1'-0"
140
0.09375
141
12.0
290
     0
  0
SCALE
  5
1469
102
{ACAD_REACTORS
330
144C
102
}
330
144C
100
AcDbScale
 70
     0
300
1/8" = 1'-0"
140
0.125
141
12.0
290
     0
  0
SCALE
  5
146A
102
{ACAD_REACTORS
330
144C
102
}
330
144C
100
AcDbScale
 70
     0
300
3/16" = 1'-0"
140
0.1875
141
12.0
290
     0
  0
SCALE
  5
146B
102
{ACAD_REACTORS
330
144C
102
}
330
144C
100
AcDbScale
 70
     0
300
1/4" = 1'-0"
140
0.25
141
12.0
290
     0
  0
SCALE
  5
146C
102
{ACAD_REACTORS
330
144C
102
}
330
144C
100
AcDbScale
 70
     0
300
3/8" = 1'-0"
140
0.375
141
12.0
290
     0
  0
SCALE
  5
146D
102
{ACAD_REACTORS
330
144C
102
}
330
144C
100
AcDbScale
 70
     0
300
1/2" = 1'-0"
140
0.5
141
12.0
290
     0
  0
SCALE
  5
146E
102
{ACAD_REACTORS
330
144C
102
}
330
144C
100
AcDbScale
 70
     0
300
3/4" = 1'-0"
140
0.75
141
12.0
290
     0
  0
SCALE
  5
146F
102
{ACAD_REACTORS
330
144C
102
}
330
144C
100
AcDbScale
 70
     0
300
1" = 1'-0"
140
1.0
141
12.0
290
     0
  0
SCALE
  5
1470
102
{ACAD_REACTORS
330
144C
102
}
330
144C
100
AcDbScale
 70
     0
300
1-1/2" = 1'-0"
140
1.5
141
12.0
290
     0
  0
SCALE
  5
1471
102
{ACAD_REACTORS
330
144C
102
}
330
144C
100
AcDbScale
 70
     0
300
3" = 1'-0"
140
3.0
141
12.0
290
     0
  0
SCALE
  5
1472
102
{ACAD_REACTORS
330
144C
102
}
330
144C
100
AcDbScale
 70
     0
300
6" = 1'-0"
140
6.0
141
12.0
290
     0
  0
SCALE
  5
1473
102
{ACAD_REACTORS
330
144C
102
}
330
144C
100
AcDbScale
 70
     0
300
1'-0" = 1'-0"
140
12.0
141
12.0
290
     0
  0
TABLESTYLE
  5
1450
102
{ACAD_XDICTIONARY
360
1480
102
}
102
{ACAD_REACTORS
330
144D
102
}
330
144D
100
AcDbTableStyle
  3
Standard
 70
     0
 71
     0
 40
0.06
 41
0.06
280
     0
281
     0
  7
Standard
140
0.18
170
     2
 62
     0
 63
     7
283
     0
 90
        4
 91
        0
  1

274
    -2
284
     1
 64
     0
275
    -2
285
     1
 65
     0
276
    -2
286
     1
 66
     0
277
    -2
287
     1
 67
     0
278
    -2
288
     1
 68
     0
279
    -2
289
     1
 69
     0
  7
Standard
140
0.25
170
     5
 62
     0
 63
     7
283
     0
 90
        4
 91
        0
  1

274
    -2
284
     1
 64
     0
275
    -2
285
     1
 65
     0
276
    -2
286
     1
 66
     0
277
    -2
287
     1
 67
     0
278
    -2
288
     1
 68
     0
279
    -2
289
     1
 69
     0
  7
Standard
140
0.18
170
     5
 62
     0
 63
     7
283
     0
 90
        4
 91
        0
  1

274
    -2
284
     1
 64
     0
275
    -2
285
     1
 65
     0
276
    -2
286
     1
 66
     0
277
    -2
287
     1
 67
     0
278
    -2
288
     1
 68
     0
279
    -2
289
     1
 69
     0
  0
VISUALSTYLE
  5
1431
102
{ACAD_XDICTIONARY
360
14F7
102
}
102
{ACAD_REACTORS
330
1432
102
}
330
1432
100
AcDbVisualStyle
  2

 70
     4
 71
     0
 72
     2
 73
     0
 90
        0
 40
-0.6
 41
-30.0
 62
     5
 63
     7
421
 16777215
 74
     1
 91
        4
 64
     7
 65
   257
 75
     1
175
     1
 42
1.0
 92
        0
 66
   257
 43
1.0
 76
     1
 77
     6
 78
     2
 67
     7
 79
     5
170
     0
171
     0
290
     0
174
     0
 93
        1
 44
0.0
173
     0
291
     0
 45
0.0
1001
ACAD
1000
AcDbSavedByObjectVersion
1070
     0
  0
VISUALSTYLE
  5
1491
102
{ACAD_XDICTIONARY
360
1507
102
}
102
{ACAD_REACTORS
330
1432
102
}
330
1432
100
AcDbVisualStyle
  2
3D Hidden
 70
     6
 71
     1
 72
     2
 73
     2
 90
        0
 40
-0.6
 41
-30.0
 62
     5
 63
     7
421
 16777215
 74
     2
 91
        2
 64
     7
 65
   257
 75
     2
175
     1
 42
179.0
 92
        0
 66
   257
 43
1.0
 76
     1
 77
     6
 78
     2
 67
     7
 79
     3
170
     0
171
     0
290
     0
174
     0
 93
        1
 44
0.0
173
     0
291
     0
 45
0.0
1001
ACAD
1000
AcDbSavedByObjectVersion
1070
     0
  0
VISUALSTYLE
  5
1452
102
{ACAD_XDICTIONARY
360
14FB
102
}
102
{ACAD_REACTORS
330
1432
102
}
330
1432
100
AcDbVisualStyle
  2

 70
     5
 71
     0
 72
     2
 73
     0
 90
        0
 40
-0.6
 41
-30.0
 62
     5
 63
     7
421
 16777215
 74
     1
 91
        4
 64
     7
 65
   257
 75
     1
175
     1
 42
1.0
 92
        0
 66
   257
 43
1.0
 76
     1
 77
     6
 78
     2
 67
     7
 79
     5
170
     0
171
     0
290
     0
174
     0
 93
        1
 44
0.0
173
     0
291
     0
 45
0.0
1001
ACAD
1000
AcDbSavedByObjectVersion
1070
     0
  0
VISUALSTYLE
  5
1490
102
{ACAD_XDICTIONARY
360
1505
102
}
102
{ACAD_REACTORS
330
1432
102
}
330
1432
100
AcDbVisualStyle
  2
Basic
 70
     7
 71
     1
 72
     0
 73
     1
 90
        0
 40
-0.6
 41
-30.0
 62
     5
 63
     7
421
 16777215
 74
     0
 91
        4
 64
     7
 65
   257
 75
     1
175
     1
 42
1.0
 92
        8
 66
     7
 43
1.0
 76
     1
 77
     6
 78
     2
 67
     7
 79
     5
170
     0
171
     0
290
     0
174
     0
 93
        1
 44
0.0
173
     0
291
     1
 45
0.0
1001
ACAD
1000
AcDbSavedByObjectVersion
1070
     0
  0
VISUALSTYLE
  5
1494
102
{ACAD_XDICTIONARY
360
150D
102
}
102
{ACAD_REACTORS
330
1432
102
}
330
1432
100
AcDbVisualStyle
  2
Brighten
 70
    12
 71
     2
 72
     2
 73
     0
 90
        0
 40
-0.6
 41
-30.0
 62
     5
 63
     7
421
 16777215
 74
     1
 91
        4
 64
     7
 65
   257
 75
     1
175
     1
 42
1.0
 92
        8
 66
     7
 43
1.0
 76
     1
 77
     6
 78
     2
 67
     7
 79
     5
170
     0
171
     0
290
     0
174
     0
 93
        1
 44
50.0
173
     0
291
     1
 45
0.0
1001
ACAD
1000
AcDbSavedByObjectVersion
1070
     0
  0
VISUALSTYLE
  5
1498
102
{ACAD_XDICTIONARY
360
1515
102
}
102
{ACAD_REACTORS
330
1432
102
}
330
1432
100
AcDbVisualStyle
  2
ColorChange
 70
    16
 71
     2
 72
     2
 73
     3
 90
        0
 40
-0.6
 41
-30.0
 62
     5
 63
     8
421
  8421504
 74
     1
 91
        4
 64
     7
 65
   257
 75
     1
175
     1
 42
1.0
 92
        8
 66
     8
424
  8421504
 43
1.0
 76
     1
 77
     6
 78
     2
 67
     7
 79
     5
170
     0
171
     0
290
     0
174
     0
 93
        1
 44
0.0
173
     0
291
     1
 45
0.0
1001
ACAD
1000
AcDbSavedByObjectVersion
1070
     0
  0
VISUALSTYLE
  5
1492
102
{ACAD_XDICTIONARY
360
1509
102
}
102
{ACAD_REACTORS
330
1432
102
}
330
1432
100
AcDbVisualStyle
  2
Conceptual
 70
     9
 71
     3
 72
     2
 73
     0
 90
        0
 40
-0.6
 41
-30.0
 62
     5
 63
     7
421
 16777215
 74
     2
 91
        2
 64
     7
 65
   257
 75
     1
175
     1
 42
179.0
 92
        8
 66
     7
 43
1.0
 76
     1
 77
     6
 78
     2
 67
     7
 79
     3
170
     0
171
     0
290
     0
174
     0
 93
        1
 44
0.0
173
     0
291
     0
 45
0.0
1001
ACAD
1000
AcDbSavedByObjectVersion
1070
     0
  0
VISUALSTYLE
  5
1493
102
{ACAD_XDICTIONARY
360
150B
102
}
102
{ACAD_REACTORS
330
1432
102
}
330
1432
100
AcDbVisualStyle
  2
Dim
 70
    11
 71
     2
 72
     2
 73
     0
 90
        0
 40
-0.6
 41
-30.0
 62
     5
 63
     7
421
 16777215
 74
     1
 91
        4
 64
     7
 65
   257
 75
     1
175
     1
 42
1.0
 92
        8
 66
     7
 43
1.0
 76
     1
 77
     6
 78
     2
 67
     7
 79
     5
170
     0
171
     0
290
     0
174
     0
 93
        1
 44
-50.0
173
     0
291
     1
 45
0.0
1001
ACAD
1000
AcDbSavedByObjectVersion
1070
     0
  0
VISUALSTYLE
  5
149B
102
{ACAD_XDICTIONARY
360
151B
102
}
102
{ACAD_REACTORS
330
1432
102
}
330
1432
100
AcDbVisualStyle
  2
EdgeColorOff
 70
    22
 71
     2
 72
     2
 73
     0
 90
        0
 40
-0.6
 41
-30.0
 62
     5
 63
     7
421
 16777215
 74
     1
 91
        4
 64
     7
 65
   257
 75
     1
175
     1
 42
1.0
 92
        8
 66
     7
 43
1.0
 76
     1
 77
     6
 78
     2
 67
     7
 79
     5
170
     0
171
     0
290
     0
174
     0
 93
        1
 44
0.0
173
     0
291
     1
 45
0.0
1001
ACAD
1000
AcDbSavedByObjectVersion
1070
     0
  0
VISUALSTYLE
  5
1497
102
{ACAD_XDICTIONARY
360
1513
102
}
102
{ACAD_REACTORS
330
1432
102
}
330
1432
100
AcDbVisualStyle
  2
Facepattern
 70
    15
 71
     2
 72
     2
 73
     0
 90
        0
 40
-0.6
 41
-30.0
 62
     5
 63
     7
421
 16777215
 74
     1
 91
        4
 64
     7
 65
   257
 75
     1
175
     1
 42
1.0
 92
        8
 66
     7
 43
1.0
 76
     1
 77
     6
 78
     2
 67
     7
 79
     5
170
     0
171
     0
290
     0
174
     0
 93
        1
 44
0.0
173
     0
291
     1
 45
0.0
1001
ACAD
1000
AcDbSavedByObjectVersion
1070
     0
  0
VISUALSTYLE
  5
148C
102
{ACAD_XDICTIONARY
360
14FD
102
}
102
{ACAD_REACTORS
330
1432
102
}
330
1432
100
AcDbVisualStyle
  2
Flat
 70
     0
 71
     2
 72
     1
 73
     1
 90
        2
 40
-0.6
 41
30.0
 62
     5
 63
     7
421
 16777215
 74
     0
 91
        4
 64
     7
 65
   257
 75
     1
175
     1
 42
1.0
 92
        8
 66
     7
 43
1.0
 76
     1
 77
     6
 78
     2
 67
     7
 79
     5
170
     0
171
     0
290
     0
174
     0
 93
       13
 44
0.0
173
     0
291
     1
 45
0.0
1001
ACAD
1000
AcDbSavedByObjectVersion
1070
     0
  0
VISUALSTYLE
  5
148D
102
{ACAD_XDICTIONARY
360
14FF
102
}
102
{ACAD_REACTORS
330
1432
102
}
330
1432
100
AcDbVisualStyle
  2
FlatWithEdges
 70
     1
 71
     2
 72
     1
 73
     1
 90
        2
 40
-0.6
 41
30.0
 62
     5
 63
     7
421
 16777215
 74
     1
 91
        4
 64
     7
 65
   257
 75
     1
175
     1
 42
1.0
 92
        0
 66
   257
 43
1.0
 76
     1
 77
     6
 78
     2
 67
     7
 79
     5
170
     0
171
     0
290
     0
174
     0
 93
       13
 44
0.0
173
     0
291
     1
 45
0.0
1001
ACAD
1000
AcDbSavedByObjectVersion
1070
     0
  0
VISUALSTYLE
  5
148E
102
{ACAD_XDICTIONARY
360
1501
102
}
102
{ACAD_REACTORS
330
1432
102
}
330
1432
100
AcDbVisualStyle
  2
Gouraud
 70
     2
 71
     2
 72
     2
 73
     1
 90
        2
 40
-0.6
 41
30.0
 62
     5
 63
     7
421
 16777215
 74
     0
 91
        4
 64
     7
 65
   257
 75
     1
175
     1
 42
1.0
 92
        0
 66
     7
 43
1.0
 76
     1
 77
     6
 78
     2
 67
     7
 79
     5
170
     0
171
     0
290
     0
174
     0
 93
       13
 44
0.0
173
     0
291
     1
 45
0.0
1001
ACAD
1000
AcDbSavedByObjectVersion
1070
     0
  0
VISUALSTYLE
  5
148F
102
{ACAD_XDICTIONARY
360
1503
102
}
102
{ACAD_REACTORS
330
1432
102
}
330
1432
100
AcDbVisualStyle
  2
GouraudWithEdges
 70
     3
 71
     2
 72
     2
 73
     1
 90
        2
 40
-0.6
 41
30.0
 62
     5
 63
     7
421
 16777215
 74
     1
 91
        4
 64
     7
 65
   257
 75
     1
175
     1
 42
1.0
 92
        0
 66
   257
 43
1.0
 76
     1
 77
     6
 78
     2
 67
     7
 79
     5
170
     0
171
     0
290
     0
174
     0
 93
       13
 44
0.0
173
     0
291
     1
 45
0.0
1001
ACAD
1000
AcDbSavedByObjectVersion
1070
     0
  0
VISUALSTYLE
  5
1499
102
{ACAD_XDICTIONARY
360
1517
102
}
102
{ACAD_REACTORS
330
1432
102
}
330
1432
100
AcDbVisualStyle
  2
JitterOff
 70
    20
 71
     2
 72
     2
 73
     0
 90
        0
 40
-0.6
 41
-30.0
 62
     5
 63
     7
421
 16777215
 74
     1
 91
        4
 64
     7
 65
   257
 75
     1
175
     1
 42
1.0
 92
       10
 66
     7
 43
1.0
 76
     1
 77
     6
 78
     2
 67
     7
 79
     5
170
     0
171
     0
290
     0
174
     0
 93
        1
 44
0.0
173
     0
291
     1
 45
0.0
1001
ACAD
1000
AcDbSavedByObjectVersion
1070
     0
  0
VISUALSTYLE
  5
1496
102
{ACAD_XDICTIONARY
360
1511
102
}
102
{ACAD_REACTORS
330
1432
102
}
330
1432
100
AcDbVisualStyle
  2
Linepattern
 70
    14
 71
     2
 72
     2
 73
     0
 90
        0
 40
-0.6
 41
-30.0
 62
     5
 63
     7
421
 16777215
 74
     1
 91
        4
 64
     7
 65
   257
 75
     7
175
     7
 42
1.0
 92
        8
 66
     7
 43
1.0
 76
     1
 77
     6
 78
     2
 67
     7
 79
     5
170
     0
171
     0
290
     0
174
     0
 93
        1
 44
0.0
173
     0
291
     1
 45
0.0
1001
ACAD
1000
AcDbSavedByObjectVersion
1070
     0
  0
VISUALSTYLE
  5
149A
102
{ACAD_XDICTIONARY
360
1519
102
}
102
{ACAD_REACTORS
330
1432
102
}
330
1432
100
AcDbVisualStyle
  2
OverhangOff
 70
    21
 71
     2
 72
     2
 73
     0
 90
        0
 40
-0.6
 41
-30.0
 62
     5
 63
     7
421
 16777215
 74
     1
 91
        4
 64
     7
 65
   257
 75
     1
175
     1
 42
1.0
 92
        9
 66
     7
 43
1.0
 76
     1
 77
     6
 78
     2
 67
     7
 79
     5
170
     0
171
     0
290
     0
174
     0
 93
        1
 44
0.0
173
     0
291
     1
 45
0.0
1001
ACAD
1000
AcDbSavedByObjectVersion
1070
     0
  0
VISUALSTYLE
  5
1451
102
{ACAD_XDICTIONARY
360
14F9
102
}
102
{ACAD_REACTORS
330
1432
102
}
330
1432
100
AcDbVisualStyle
  2

 70
     8
 71
     2
 72
     2
 73
     0
 90
        0
 40
-0.6
 41
-30.0
 62
     5
 63
     7
421
 16777215
 74
     1
 91
        0
 64
     7
 65
   257
 75
     1
175
     1
 42
1.0
 92
        8
 66
     8
424
  7895160
 43
1.0
 76
     1
 77
     6
 78
     2
 67
     7
 79
     5
170
     0
171
     0
290
     0
174
     0
 93
       13
 44
0.0
173
     0
291
     0
 45
0.0
1001
ACAD
1000
AcDbSavedByObjectVersion
1070
     0
  0
VISUALSTYLE
  5
1495
102
{ACAD_XDICTIONARY
360
150F
102
}
102
{ACAD_REACTORS
330
1432
102
}
330
1432
100
AcDbVisualStyle
  2
Thicken
 70
    13
 71
     2
 72
     2
 73
     0
 90
        0
 40
-0.6
 41
-30.0
 62
     5
 63
     7
421
 16777215
 74
     1
 91
        4
 64
     7
 65
   257
 75
     1
175
     1
 42
1.0
 92
       12
 66
     7
 43
1.0
 76
     1
 77
     6
 78
     2
 67
     7
 79
     5
170
     0
171
     0
290
     0
174
     0
 93
        1
 44
0.0
173
     0
291
     1
 45
0.0
1001
ACAD
1000
AcDbSavedByObjectVersion
1070
     0
  0
DICTIONARYVAR
  5
147C
102
{ACAD_REACTORS
330
1478
102
}
330
1478
100
DictionaryVariables
280
     0
  1
1:1
  0
DICTIONARYVAR
  5
147A
102
{ACAD_REACTORS
330
1478
102
}
330
1478
100
DictionaryVariables
280
     0
  1
STANDARD
  0
DICTIONARYVAR
  5
1479
102
{ACAD_REACTORS
330
1478
102
}
330
1478
100
DictionaryVariables
280
     0
  1
STANDARD
  0
DICTIONARYVAR
  5
147E
102
{ACAD_REACTORS
330
1478
102
}
330
1478
100
DictionaryVariables
280
     0
  1
1
  0
DICTIONARYVAR
  5
147F
102
{ACAD_REACTORS
330
1478
102
}
330
1478
100
DictionaryVariables
280
     0
  1
15
  0
DICTIONARYVAR
  5
147D
102
{ACAD_REACTORS
330
1478
102
}
330
1478
100
DictionaryVariables
280
     0
  1
0
  0
DICTIONARYVAR
  5
147B
102
{ACAD_REACTORS
330
1478
102
}
330
1478
100
DictionaryVariables
280
     0
  1
0
  0
DICTIONARY
  5
1421
330
1420
100
AcDbDictionary
280
     1
281
     1
  3
ADSK_XREC_LAYOUTTHUMBNAIL
360
1422
  0
DICTIONARY
  5
1444
330
1443
100
AcDbDictionary
280
     1
281
     1
  3
BUMPTILE
360
1445
  3
DIFFUSETILE
360
1446
  3
OPACITYTILE
360
1447
  3
REFLECTIONTILE
360
1448
  3
REFRACTIONTILE
360
1449
  3
SPECULARTILE
360
144A
  0
DICTIONARY
  5
143C
330
143B
100
AcDbDictionary
280
     1
281
     1
  3
BUMPTILE
360
143D
  3
DIFFUSETILE
360
143E
  3
OPACITYTILE
360
143F
  3
REFLECTIONTILE
360
1440
  3
REFRACTIONTILE
360
1441
  3
SPECULARTILE
360
1442
  0
DICTIONARY
  5
1412
330
1410
100
AcDbDictionary
280
     1
281
     1
  3
BUMPTILE
360
1413
  3
DIFFUSETILE
360
1414
  3
OPACITYTILE
360
1415
  3
REFLECTIONTILE
360
1416
  3
REFRACTIONTILE
360
1417
  3
SPECULARTILE
360
1418
  0
DICTIONARY
  5
1480
330
1450
100
AcDbDictionary
280
     1
281
     1
  3
ACAD_ROUNDTRIP_2008_TABLESTYLE_CELLSTYLEMAP
360
14F5
  0
DICTIONARY
  5
14F7
330
1431
100
AcDbDictionary
280
     1
281
     1
  3
ACAD_XREC_ROUNDTRIP
360
14F8
  0
DICTIONARY
  5
1507
330
1491
100
AcDbDictionary
280
     1
281
     1
  3
ACAD_XREC_ROUNDTRIP
360
1508
  0
DICTIONARY
  5
14FB
330
1452
100
AcDbDictionary
280
     1
281
     1
  3
ACAD_XREC_ROUNDTRIP
360
14FC
  0
DICTIONARY
  5
1505
330
1490
100
AcDbDictionary
280
     1
281
     1
  3
ACAD_XREC_ROUNDTRIP
360
1506
  0
DICTIONARY
  5
150D
330
1494
100
AcDbDictionary
280
     1
281
     1
  3
ACAD_XREC_ROUNDTRIP
360
150E
  0
DICTIONARY
  5
1515
330
1498
100
AcDbDictionary
280
     1
281
     1
  3
ACAD_XREC_ROUNDTRIP
360
1516
  0
DICTIONARY
  5
1509
330
1492
100
AcDbDictionary
280
     1
281
     1
  3
ACAD_XREC_ROUNDTRIP
360
150A
  0
DICTIONARY
  5
150B
330
1493
100
AcDbDictionary
280
     1
281
     1
  3
ACAD_XREC_ROUNDTRIP
360
150C
  0
DICTIONARY
  5
151B
330
149B
100
AcDbDictionary
280
     1
281
     1
  3
ACAD_XREC_ROUNDTRIP
360
151C
  0
DICTIONARY
  5
1513
330
1497
100
AcDbDictionary
280
     1
281
     1
  3
ACAD_XREC_ROUNDTRIP
360
1514
  0
DICTIONARY
  5
14FD
330
148C
100
AcDbDictionary
280
     1
281
     1
  3
ACAD_XREC_ROUNDTRIP
360
14FE
  0
DICTIONARY
  5
14FF
330
148D
100
AcDbDictionary
280
     1
281
     1
  3
ACAD_XREC_ROUNDTRIP
360
1500
  0
DICTIONARY
  5
1501
330
148E
100
AcDbDictionary
280
     1
281
     1
  3
ACAD_XREC_ROUNDTRIP
360
1502
  0
DICTIONARY
  5
1503
330
148F
100
AcDbDictionary
280
     1
281
     1
  3
ACAD_XREC_ROUNDTRIP
360
1504
  0
DICTIONARY
  5
1517
330
1499
100
AcDbDictionary
280
     1
281
     1
  3
ACAD_XREC_ROUNDTRIP
360
1518
  0
DICTIONARY
  5
1511
330
1496
100
AcDbDictionary
280
     1
281
     1
  3
ACAD_XREC_ROUNDTRIP
360
1512
  0
DICTIONARY
  5
1519
330
149A
100
AcDbDictionary
280
     1
281
     1
  3
ACAD_XREC_ROUNDTRIP
360
151A
  0
DICTIONARY
  5
14F9
330
1451
100
AcDbDictionary
280
     1
281
     1
  3
ACAD_XREC_ROUNDTRIP
360
14FA
  0
DICTIONARY
  5
150F
330
1495
100
AcDbDictionary
280
     1
281
     1
  3
ACAD_XREC_ROUNDTRIP
360
1510
  0
XRECORD
  5
1422
102
{ACAD_REACTORS
330
1421
102
}
330
1421
100
AcDbXrecord
280
     1
310
28000000B40000008B0000000100080000000000BC61000000000000000000000001000000000000FFFFFF0000000000FFFFFF000000000000000000000000000000000000000000000000000000000000000000330000006600000099000000CC000000FF00000000330000333300006633000099330000CC330000FF3300
310
0000660000336600006666000099660000CC660000FF66000000990000339900006699000099990000CC990000FF99000000CC000033CC000066CC000099CC0000CCCC0000FFCC000000FF000033FF000066FF000099FF0000CCFF0000FFFF000000003300330033006600330099003300CC003300FF003300003333003333
310
33006633330099333300CC333300FF33330000663300336633006666330099663300CC663300FF66330000993300339933006699330099993300CC993300FF99330000CC330033CC330066CC330099CC3300CCCC3300FFCC330000FF330033FF330066FF330099FF3300CCFF3300FFFF330000006600330066006600660099
310
006600CC006600FF00660000336600333366006633660099336600CC336600FF33660000666600336666006666660099666600CC666600FF66660000996600339966006699660099996600CC996600FF99660000CC660033CC660066CC660099CC6600CCCC6600FFCC660000FF660033FF660066FF660099FF6600CCFF6600
310
FFFF660000009900330099006600990099009900CC009900FF00990000339900333399006633990099339900CC339900FF33990000669900336699006666990099669900CC669900FF66990000999900339999006699990099999900CC999900FF99990000CC990033CC990066CC990099CC9900CCCC9900FFCC990000FF99
310
0033FF990066FF990099FF9900CCFF9900FFFF99000000CC003300CC006600CC009900CC00CC00CC00FF00CC000033CC003333CC006633CC009933CC00CC33CC00FF33CC000066CC003366CC006666CC009966CC00CC66CC00FF66CC000099CC003399CC006699CC009999CC00CC99CC00FF99CC0000CCCC0033CCCC0066CC
310
CC0099CCCC00CCCCCC00FFCCCC0000FFCC0033FFCC0066FFCC0099FFCC00CCFFCC00FFFFCC000000FF003300FF006600FF009900FF00CC00FF00FF00FF000033FF003333FF006633FF009933FF00CC33FF00FF33FF000066FF003366FF006666FF009966FF00CC66FF00FF66FF000099FF003399FF006699FF009999FF00CC
310
99FF00FF99FF0000CCFF0033CCFF0066CCFF0099CCFF00CCCCFF00FFCCFF0000FFFF0033FFFF0066FFFF0099FFFF00CCFFFF00FFFFFF00000000000D0D0D001A1A1A00282828003535350043434300505050005D5D5D006B6B6B00787878008686860093939300A1A1A100AEAEAE00BBBBBB00C9C9C900D6D6D600E4E4E400
310
F1F1F100FFFFFF0000000000000000000000000000000000000000000000000000000000000000000000000000000000E2E2E2E2E2E2E2E2E2E2E2E2E2E2E2E2E2E2E2E2E2E2E2E2E2E2E2E2E2E2E2E2E2E2E2E2E2E2E2E2E2E2E2E2E2E2E2E2E2E2E2E2E2E2E2E2E2E2E2E2E2E2E2E2E2E2E2E2E2E2E2E2E2E2E2E2E2E2E2
310
E2E2E2E2E2E2E2E2E2E2E2E2E2E2E2E2E2E2E2E2E2E2E2E2E2E2E2E2E2E2E2E2E2E2E2E2E2E2E2E2E2E2E2E2E2E2E2E2E2E2E2E2E2E2E2E2E2E2E2E2E2E2E2E2E2E2E2E2E2E2E2E2E2E2E2E2E2E2E2E2E2E2E2E2E2E2E2E2E2E2E2E2E2E2E2E2E2E2E2E2EFF5F5F5F5F5F5F5F5F5F5F5F5F5F5F5F5F5F5F5F5F5F5F5F5F5F5
310
F5F5F5F5F5F5F5F5F5F5F5F5F5F5F5F5F5F5F5F5F5F5F5F5F5F5F5F5F5F5F5F5F5F5F5F5F5F5F5F5F5F5F5F5F5F5F5F5F5F5F5F5F5F5F5F5F5F5F5F5F5F5F5F5F5F5F5F5F5F5F5F5F5F5F5F5F5F5F5F5F5F5F5F5F5F5F5F5F5F5F5F5F5F5F5F5F5F5F5F5F5F5F5F5F5F5F5F5F5F5F5F5F5F5F5F5F5F5F5F5F5F5F5F5F5F5F5
310
F5F5F5F5F5F5F5F5F5F5F5F5F5F5F5F5F5F5F5F5F5F5F5F5E2E2EFF5F5F5F5F5F5F5F5F5F5F5F5F5F5F5F5F5F5F5F5F5F5F5F5F5F5F5F5F5F5F5F5F5F5F5F5F5F5F5F5F5F5F5F5F5F5F5F5F5F5F5F5F5F5F5F5F5F5F5F5F5F5F5F5F5F5F5F5F5F5F5F5F5F5F5F5F5F5F5F5F5F5F5F5F5F5F5F5F5F5F5F5F5F5F5F5F5F5F5F5
310
F5F5F5F5F5F5F5F5F5F5F5F5F5F5F5F5F5F5F5F5F5F5F5F5F5F5F5F5F5F5F5F5F5F5F5F5F5F5F5F5F5F5F5F5F5F5F5F5F5F5F5F5F5F5F5F5F5F5F5F5F5F5F5F5F5F5F5F5F5F5F5F5F5F5F5F5F5E2E2EFF5F5F5F5F5F5F5F5F5F5F5F5F5F5F5F5F5F5F5F5F5F5F5F5F5F5F5F5F5F5F5F5F5F5F5F5F5F5F5F5F5F5F5F5F5F5F5
310
F5F5F5F5F5F5F5F5F5F5F5F5F5F5F5F5F5F5F5F5F5F5F5F5F5F5F5F5F5F5F5F5F5F5F5F5F5F5F5F5F5F5F5F5F5F5F5F5F5F5F5F5F5F5F5F5F5F5F5F5F5F5F5F5F5F5F5F5F5F5F5F5F5F5F5F5F5F5F5F5F5F5F5F5F5F5F5F5F5F5F5F5F5F5F5F5F5F5F5F5F5F5F5F5F5F5F5F5F5F5F5F5F5F5F5F5F5F5F5F5F5F5F5F5F5F5F5
310
F5F5F5E2E2EFF5F5F5E2E2E2E2E2E2E2E2F5F5F5F5F5F5F5F5F5E2E2E2E2E2E2E2E2E2E2E2E2E2E2E2E2F5F5F5F5F5F5F5F5E2E2E2E2E2E2E2E2E2E2E2E2E2E2E2E2F5F5F5F5F5F5F5F5F5E2E2E2E2E2E2E2E2E2E2E2E2E2E2E2F5F5F5F5F5F5F5F5F5E2E2E2E2E2E2E2E2E2E2E2E2E2E2E2F5F5F5F5F5F5F5F5F5E2E2E2E2
310
E2E2E2E2E2E2E2E2E2E2E2E2F5F5F5F5F5F5F5F5E2E2E2E2E2E2E2E2E2E2E2E2E2E2E2E2F5F5F5F5F5F5F5F5F5E2E2E2E2E2E2E2E2F5F5F5E2E2EFF5F5F5E2F5F5F5F5F5F5F5F5F5F5F5F5F5F5F5F5F5F5F5F5F5F5F5F5F5F5F5F5F5F5F5F5F5F5F5F5F5F5F5F5F5F5F5F5F5F5F5F5F5F5F5F5F5F5F5F5F5F5F5F5F5F5F5F5
310
F5F5F5F5F5F5F5F5F5F5F5F5F5F5F5F5F5F5F5F5F5F5F5F5F5F5F5F5F5F5F5F5F5F5F5F5F5F5F5F5F5F5F5F5F5F5F5F5F5F5F5F5F5F5F5F5F5F5F5F5F5F5F5F5F5F5F5F5F5F5F5F5F5F5F5F5F5F5F5F5F5F5F5F5F5F5F5F5F5F5F5F5F5F5F5F5F5F5F5F5F5F5F5F5F5E2F5F5F5E2E2EFF5F5F5E2F5F5F5F5F5F5F5F5F5F5F5
310
F5F5F5F5F5F5F5F5F5F5F5F5F5F5F5F5F5F5F5F5F5F5F5F5F5F5F5F5F5F5F5F5F5F5F5F5F5F5F5F5F5F5F5F5F5F5F5F5F5F5F5F5F5F5F5F5F5F5F5F5F5F5F5F5F5F5F5F5F5F5F5F5F5F5F5F5F5F5F5F5F5F5F5F5F5F5F5F5F5F5F5F5F5F5F5F5F5F5F5F5F5F5F5F5F5F5F5F5F5F5F5F5F5F5F5F5F5F5F5F5F5F5F5F5F5F5F5
310
F5F5F5F5F5F5F5F5F5F5F5F5F5F5F5F5F5F5F5F5F5F5F5F5F5F5F5F5F5F5F5E2F5F5F5E2E2EFF5F5F5E2F5F5F5F5F5F5F5F5F5F5F5F5F5F5F5F5F5F5F5F5F5F5F5F5F5F5F5F5F5F5F5F5F5F5F5F5F5F5F5F5F5F5F5F5F5F5F5F5F5F5F5F5F5F5F5F5F5F5F5F5F5F5F5F5F5F5F5F5F5F5F5F5F5F5F5F5F5F5F5F5F5F5F5F5F5
310
F5F5F5F5F5F5F5F5F5F5F5F5F5F5F5F5F5F5F5F5F5F5F5F5F5F5F5F5F5F5F5F5F5F5F5F5F5F5F5F5F5F5F5F5F5F5F5F5F5F5F5F5F5F5F5F5F5F5F5F5F5F5F5F5F5F5F5F5F5F5F5F5F5F5F5F5F5F5F5F5F5F5F5F5E2F5F5F5E2E2EFF5F5F5E2F5F5F5F5F5F5F5F5F5F5F5F5F5F5F5F5F5F5F5F5F5F5F5F5F5F5F5F5F5F5F5F5
310
F5F5F5F5F5F5F5F5F5F5F5F5F5F5F5F5F5F5F5F5F5F5F5F5F5F5F5F5F5F5F5F5F5F5F5F5F5F5F5F5F5F5F5F5F5F5F5F5F5F5F5F5F5F5F5F5F5F5F5F5F5F5F5F5F5F5F5F5F5F5F5F5F5F5F5F5F5F5F5F5F5F5F5F5F5F5F5F5F5F5F5F5F5F5F5F5F5F5F5F5F5F5F5F5F5F5F5F5F5F5F5F5F5F5F5F5F5F5F5F5F5F5F5F5F5F5F5
310
F5F5F5F5F5F5F5F5F5F5E2F5F5F5E2E2EFF5F5F5E2F5F5F5F5F5F5F5F5F5F5F5F5F5F5F5F5F5F5F5F5F5F5F5F5F5F5F5F5F5F5F5F5F5F5F5F5F5F5F5F5F5F5F5F5F5F5F5F5F5F5F5F5F5F5F5F5F5F5F5F5F5F5F5F5F5F5F5F5F5F5F5F5F5F5F5F5F5F5F5F5F5F5F5F5F5F5F5F5F5F5F5F5F5F5F5F5F5F5F5F5F5F5F5F5F5F5
310
F5F5F5F5F5F5F5F5F5F5F5F5F5F5F5F5F5F5F5F5F5F5F5F5F5F5F5F5F5F5F5F5F5F5F5F5F5F5F5F5F5F5F5F5F5F5F5F5F5F5F5F5F5F5F5F5F5F5F5F5F5F5F5E2F5F5F5E2E2EFF5F5F5E2F5F5F5F5F5F5F5F5F5F5F5F5F5F5F5F5F5F5F5F5F5F5F5F5F5F5F5F5F5F5F5F5F5F5F5F5F5F5F5F5F5F5F5F5F5F5F5F5F5F5F5F5F5
310
F5F5F5F5F5F5F5F5F5F5F5F5F5F5F5F5F5F5F5F5F5F5F5F5F5F5F5F5F5F5F5F5F5F5F5F5F5F5F5F5F5F5F5F5F5F5F5F5F5F5F5F5F5F5F5F5F5F5F5F5F5F5F5F5F5F5F5F5F5F5F5F5F5F5F5F5F5F5F5F5F5F5F5F5F5F5F5F5F5F5F5F5F5F5F5F5F5F5F5F5F5F5F5F5F5F5F5F5F5F5F5F5F5F5F5F5E2F5F5F5E2E2EFF5F5F5E2
310
F5F5F5F5F5F5F5F5F5F5F5F5F5F5F5F5F5F5F5F5F5F5F5F5F5F5F5F5F5F5F5F5F5F5F5F5F5F5F5F5F5F5F5F5F5F5F5F5F5F5F5F5F5F5F5F5F5F5F5F5F5F5F5F5F5F5F5F5F5F5F5F5F5F5F5F5F5F5F5F5F5F5F5F5F5F5F5F5F5F5F5F5F5F5F5F5F5F5F5F5F5F5F5F5F5F5F5F5F5F5F5F5F5F5F5F5F5F5F5F5F5F5F5F5F5F5F5
310
F5F5F5F5F5F5F5F5F5F5F5F5F5F5F5F5F5F5F5F5F5F5F5F5F5F5F5F5F5F5F5F5F5F5F5F5F5F5F5F5F5F5E2F5F5F5E2E2EFF5F5F5E2F5F5F5F5F5F5F5F5F5F5F5F5F5F5F5F5F5F5F5F5F5F5F5F5F5F5F5F5F5F5F5F5F5F5F5F5F5F5F5F5F5F5F5F5F5F5F5F5F5F5F5F5F5F5F5F5F5F5F5F5F5F5F5F5F5F5F5F5F5F5F5F5F5F5
310
F5F5F5F5F5F5F5F5F5F5F5F5F5F5F5F5F5F5F5F5F5F5F5F5F5F5F5F5F5F5F5F5F5F5F5F5F5F5F5F5F5F5F5F5F5F5F5F5F5F5F5F5F5F5F5F5F5F5F5F5F5F5F5F5F5F5F5F5F5F5F5F5F5F5F5F5F5F5F5F5F5F5F5F5F5F5F5F5F5F5F5F5F5F5F5E2F5F5F5E2E2EFF5F5F5F5F5F5F5F5F5F5F5F5F5F5F5F5F5F5F5F5F5F5F5F5F5
310
F5F5F5F5F5F5F5F5F5F5F5F5F5F5F5F5F5F5F5F5F5F5F5F5F5F5F5F5F5F5F5F5F5F5F5F5F5F5F5F5F5F5F5F5F5F5F5F5F5F5F5F5F5F5F5F5F5F5F5F5F5F5F5F5F5F5F5F5F5F5F5F5F5F5F5F5F5F5F5F5F5F5F5F5F5F5F5F5F5F5F5F5F5F5F5F5F5F5F5F5F5F5F5F5F5F5F5F5F5F5F5F5F5F5F5F5F5F5F5F5F5F5F5F5F5F5F5
310
F5F5F5F5F5F5F5F5F5F5F5F5F5F5F5F5F5F5F5F5F5F5F5F5F5E2E2EFF5F5F5F5F5F5F5F5F5F5F5F5F5F5F5F5F5F5F5F5F5F5F5F5F5F5F5F5F5F5F5F5F5F5F5F5F5F5F5F5F5F5F5F5F5F5F5F5F5F5F5F5F5F5F5F5F5F5F5F5F5F5F5F5F5F5F5F5F5F5F5F5F5F5F5F5F5F5F5F5F5F5F5F5F5F5F5F5F5F5F5F5F5F5F5F5F5F5F5
310
F5F5F5F5F5F5F5F5F5F5F5F5F5F5F5F5F5F5F5F5F5F5F5F5F5F5F5F5F5F5F5F5F5F5F5F5F5F5F5F5F5F5F5F5F5F5F5F5F5F5F5F5F5F5F5F5F5F5F5F5F5F5F5F5F5F5F5F5F5F5F5F5F5F5F5F5F5F5E2E2EFF5F5F5F5F5F5F5F5F5F5F5F5F5F5F5F5F5F5F5F5F5F5F5F5F5F5F5F5F5F5F5F5F5F5F5F5F5F5F5F5F5F5F5F5F5F5
310
F5F5F5F5F5F5F5F5F5F5F5F5F5F5F5F5F5F5F5F5F5F5F5F5F5F5F5F5F5F5F5F5F5F5F5F5F5F5F5F5F5F5F5F5F5F5F5F5F5F5F5F5F5F5F5F5F5F5F5F5F5F5F5F5F5F5F5F5F5F5F5F5F5F5F5F5F5F5F5F5F5F5F5F5F5F5F5F5F5F5F5F5F5F5F5F5F5F5F5F5F5F5F5F5F5F5F5F5F5F5F5F5F5F5F5F5F5F5F5F5F5F5F5F5F5F5F5
310
F5F5F5F5E2E2EFF5F5F5F5F5F5F5F5F5F5F5F5F5F5F5F5F5F5F5F5F5F5F5F5F5F5F5F5F5F5F5F5F5F5F5F5F5F5F5F5F5F5F5F5F5F5F5F5F5F5F5F5F5F5F5F5F5F5F5F5F5F5F5F5F5F5F5F5F5F5F5F5F5F5F5F5F5F5F5F5F5F5F5F5F5F5F5F5F5F5F5F5F5F5F5F5F5F5F5F5F5F5F5F5F5F5F5F5F5F5F5F5F5F5F5F5F5F5F5F5
310
F5F5F5F5F5F5F5F5F5F5F5F5F5F5F5F5F5F5F5F5F5F5F5F5F5F5F5F5F5F5F5F5F5F5F5F5F5F5F5F5F5F5F5F5F5F5F5F5F5F5F5F5F5F5F5F5F5E2E2EFF5F5F5F5F5F5F5F5F5F5F5F5F5F5F5F5F5F5F5F5E2E2E2E2E2E2E2E2E2E2E2E2E2E2E2E2E2E2E2E2E2E2E2E2E2E2E2E2E2E2E2E2E2E2E2E2E2E2E2E2E2E2E2E2E2E2E2
310
E2E2E2E2E2E2E2E2E2E2E2E2E2E2E2E2E2E2E2E2E2E2E2E2E2E2E2E2E2E2E2E2E2E2E2E2E2E2E2E2E2E2E2E2E2E2E2E2E2E2E2E2E2E2E2E2E2E2E2E2E2E2E2E2E2E2E2E2E2E2E2E2E2E2E2E2E2E2E2E2E2E2E2E2E2E2E2E2E2E2F5F5F5F5F5F5F5F5F5F5F5F5F5F5F5F5F5F5F5F5E2E2EFF5F5F5F5F5F5F5F5F5F5F5F5F5F5
310
F5F5F5F5F5F5E2F5F5F5F5F5F5F5F5F5F5F5F5F5F5F5F5F5F5F5F5F5F5F5F5F5F5F5F5F5F5F5F5F5F5F5F5F5F5F5F5F5F5F5F5F5F5F5F5F5F5F5F5F5F5F5F5F5F5F5F5F5F5F5F5F5F5F5F5F5F5F5F5F5F5F5F5F5F5F5F5F5F5F5F5F5F5F5F5F5F5F5F5F5F5F5F5F5F5F5F5F5F5F5F5F5F5F5F5F5F5F5F5F5F5F5F5F5F5F5F5
310
F5F5F5F5F5F5F5F5F5F5F5F5F5F5F5E2F5F5F5F5F5F5F5F5F5F5F5F5F5F5F5F5F5F5F5F5E2E2EFF5F5F5F5F5F5F5F5F5F5F5F5F5F5F5F5F5F5F5F5E2F5F5F5F5F5F5F5F5F5F5F5F5F5F5F5F5F5F5F5F5F5F5F5F5F5F5F5F5F5F5F5F5F5F5F5F5F5F5F5F5F5F5F5F5F5F5F5F5F5F5F5F5F5F5F5F5F5F5F5F5F5F5F5F5F5F5F5
310
F5F5F5F5F5F5F5F5F5F5F5F5F5F5F5F5F5F5F5F5F5F5F5F5F5F5F5F5F5F5F5F5F5F5F5F5F5F5F5F5F5F5F5F5F5F5F5F5F5F5F5F5F5F5F5F5F5F5F5F5F5F5F5F5F5F5F5F5E2F5F5F5F5F5F5F5F5F5F5F5F5F5F5F5F5F5F5F5F5E2E2EFF5F5F5F5F5F5F5F5F5F5F5F5F5F5F5F5F5F5F5F5E2F5F5F5F5F5F5F5F5F5F5F5F5F5F5
310
F5F5F5F5F5F5F5F5F5F5F5F5F5F5F5F5F5F5F5F5F5F5F5F5F5F5F5F5F5F5F5F5F5F5F5F5F5F5F5F5F5F5F5F5F5F5F5F5F5F5F5F5F5F5F5F5F5F5F5F5F5F5F5F5F5F5F5F5F5F5F5F5F5F5F5F5F5F5F5F5F5F5F5F5F5F5F5F5F5F5F5F5F5F5F5F5F5F5F5F5F5F5F5F5F5F5F5F5F5F5F5F5F5F5F5F5F5F5F5F5F5E2F5F5F5F5F5
310
F5F5F5F5F5F5F5F5F5F5F5F5F5F5F5E2E2EFF5F5F5F5F5F5F5F5F5F5F5F5F5F5F5F5F5F5F5F5E2F5F5F5F5F5F5F5F5F5F5F5F5F5F5F5F5F5F5F5F5F5F5F5F5F5F5F5F5F5F5F5F5F5F5F5F5F5F5F5F5F5F5F5F5F5F5F5F5F5F5F5F5F5F5F5F5F5F5F5F5F5F5F5F5F5F5F5F5F5F5F5F5F5F5F5F5F5F5F5F5F5F5F5F5F5F5F5F5
310
F5F5F5F5F5F5F5F5F5F5F5F5F5F5F5F5F5F5F5F5F5F5F5F5F5F5F5F5F5F5F5F5F5F5F5F5F5F5F5F5F5F5F5F5F5F5F5E2F5F5F5F5F5F5F5F5F5F5F5F5F5F5F5F5F5F5F5F5E2E2EFF5F5F5E2F5F5F5F5F5F5F5F5F5F5F5F5F5F5F5F5E2F5F5F5F5F5F5F5F5F5F5F5F5F5F5F5F5F5F5F5F5F5F5F5F5F5F5F5F5F5F5F5F5F5F5F5
310
F5F5F5F5F5F5F5F5F5F5F5F5F5F5F5F5F5F5F5F5F5F5F5F5F5F5F5F5F5F5F5F5F5F5F5F5F5F5F5F5F5F5F5F5F5F5F5F5F5F5F5F5F5F5F5F5F5F5F5F5F5F5F5F5F5F5F5F5F5F5F5F5F5F5F5F5F5F5F5F5F5F5F5F5F5F5F5F5F5F5F5F5F5F5F5F5F5F5F5F5E2F5F5F5F5F5F5F5F5F5F5F5F5F5F5F5F5E2F5F5F5E2E2EFF5F5F5
310
E2F5F5F5F5F5F5F5F5F5F5F5F5F5F5F5F5E2F5F5F5F5F5F5F5F5F5F5F5F5F5F5F5F5F5F5F5F5F5F5F5F5F5F5F5F5F5F5F5F5F5F5F5F5F5F5F5F5F5F5F5F5F5F5F5F5F5F5F5F5F5F5F5F5F5F5F5F5F5F5F5F5F5F5F5F5F5F5F5F5F5F5F5F5F5F5F5F5F5F5F5F5F5F5F5F5F5F5F5F5F5F5F5F5F5F5F5F5F5F5F5F5F5F5F5F5F5
310
F5F5F5F5F5F5F5F5F5F5F5F5F5F5F5F5F5F5F5F5F5F5F5F5F5F5E2F5F5F5F5F5F5F5F5F5F5F5F5F5F5F5F5E2F5F5F5E2E2EFF5F5F5E2F5F5F5F5F5F5F5F5F5F5F5F5F5F5F5F5E2F5F5F5F5F5F5F5F5F5F5F5F5F5F5F5F5F5F5F5F5F5F5F5F5F5F5F5F5F5F5F5F5F5F5F5F5F5F5F5F5F5F5F5F5F5F5F5F5F5F5F5F5F5F5F5F5
310
F5F5F5F5F5F5F5F5F5F5F5F5F5F5F5F5F5F5F5F5F5F5F5F5F5F5F5F5F5F5F5F5F5F5F5F5F5F5F5F5F5F5F5F5F5F5F5F5F5F5F5F5F5F5F5F5F5F5F5F5F5F5F5F5F5F5F5F5F5F5F5F5F5F5F5F5F5F5F5E2F5F5F5F5F5F5F5F5F5F5F5F5F5F5F5F5E2F5F5F5E2E2EFF5F5F5E2F5F5F5F5F5F5F5F5F5F5F5F5F5F5F5F5E2F5F5F5
310
F5F5F5F5F5F5F5F5F5F5F5F5F5F5F5F5F5F5F5F5F5F5F5F5F5F5F5F5F5F5F5F5F5F5F5F5F5F5F5F5F5F5F5F5F5F5F5F5F5F5F5F5F5F5F5F5F5F5F5F5F5F5F5F5F5F5F5F5F5F5F5F5F5F5F5F5F5F5F5F5F5F5F5F5F5F5F5F5F5F5F5F5F5F5F5F5F5F5F5F5F5F5F5F5F5F5F5F5F5F5F5F5F5F5F5F5F5F5F5F5F5F5F5F5F5F5F5
310
F5F5F5F5F5E2F5F5F5F5F5F5F5F5F5F5F5F5F5F5F5F5E2F5F5F5E2E2EFF5F5F5E2F5F5F5F5F5F5F5F5F5F5F5F5F5F5F5F5E2F5F5F5F5F5F5F5F5F5F5F5F5F5F5F5F5F5F5F5F5F5F5F5F5F5F5F5F5F5F5F5F5F5F5F5F5F5F5F5F5F5F5F5F5F5F5F5F5F5F5F5F5F5F5F5F5F5F5F5F5F5F5F5F5F5F5F5F5F5F5F5F5F5F5F5F5F5
310
F5F5F5F5F5F5F5F5F5F5F5F5F5F5F5F5F5F5F5F5F5F5F5F5F5F5F5F5F5F5F5F5F5F5F5F5F5F5F5F5F5F5F5F5F5F5F5F5F5F5F5F5F5F5F5F5F5F5E2F5F5F5F5F5F5F5F5F5F5F5F5F5F5F5F5E2F5F5F5E2E2EFF5F5F5E2F5F5F5F5F5F5F5F5F5F5F5F5F5F5F5F5E2F5F5F5F5F5F5F5F5F5F5F5F5F5F5F5F5F5F5F5F5F5F5F5F5
310
F5F5F5F5F5F5F5F5F5F5F5F5F5F5F5F5F5F5F5F5F5F5F5F5F5F5F5F5F5F5F5F5F5F5F5F5F5F5F5F5F5F5F5F5F5F5F5F5F5F5F5F5F5F5F5F5F5F5F5F5F5F5F5F5F5F5F5F5F5F5F5F5F5F5F5F5F5F5F5F5F5F5F5F5F5F5F5F5F5F5F5F5F5F5F5F5F5F5F5F5F5F5F5F5F5F5F5F5F5F5F5E2F5F5F5F5F5F5F5F5F5F5F5F5F5F5F5
310
F5E2F5F5F5E2E2EFF5F5F5E2F5F5F5F5F5F5F5F5F5F5F5F5F5F5F5F5E2F5F5F5F5F5F5F5F5F5F5F5F5F5F5F5F5F5F5F5F5F5F5F5F5F5F5F5F5F5F5F5F5F5F5F5F5F5F5F5F5F5F5F5F5F5F5F5F5F5F5F5F5F5F5F5F5F5F5F5F5F5F5F5F5F5F5F5F5F5F5F5F5F5F5F5F5F5F5F5F5F5F5F5F5F5F5F5F5F5F5F5F5F5F5F5F5F5F5
310
F5F5F5F5F5F5F5F5F5F5F5F5F5F5F5F5F5F5F5F5F5F5F5F5F5F5F5F5F5F5F5F5F5F5F5F5F5E2F5F5F5F5F5F5F5F5F5F5F5F5F5F5F5F5E2F5F5F5E2E2EFF5F5F5E2F5F5F5F5F5F5F5F5F5F5F5F5F5F5F5F5E2F5F5F5F5F5F5F5F5F5F5F5F5F5F5F5F5F5F5F5F5F5F5F5F5F5F5F5F5F5F5F5F5F5F5F5F5F5F5F5F5F5F5F5F5F5
310
F5F5F5F5F5F5F5F5F5F5F5F5F5F5F5F5F5F5F5F5F5F5F5F5F5F5F5F5F5F5F5F5F5F5F5F5F5F5F5F5F5F5F5F5F5F5F5F5F5F5F5F5F5F5F5F5F5F5F5F5F5F5F5F5F5F5F5F5F5F5F5F5F5F5F5F5F5F5F5F5F5F5F5F5F5F5F5F5F5F5E2F5F5F5F5F5F5F5F5F5F5F5F5F5F5F5F5E2F5F5F5E2E2EFF5F5F5E2F5F5F5F5F5F5F5F5F5
310
F5F5F5F5F5F5F5E2F5F5F5F5F5F5F5F5F5F5F5F5F5F5F5F5F5F5F5F5F5F5F5F5F5F5F5F5F5F5F5F5F5F5F5F5F5F5F5F5F5F5F5F5F5F5F5F5F5F5F5F5F5F5F5F5F5F5F5F5F5F5F5F5F5F5F5F5F5F5F5F5F5F5F5F5F5F5F5F5F5F5F5F5F5F5F5F5F5F5F5F5F5F5F5F5F5F5F5F5F5F5F5F5F5F5F5F5F5F5F5F5F5F5F5F5F5F5F5
310
F5F5F5F5F5F5F5F5F5F5F5F5F5F5F5F5E2F5F5F5F5F5F5F5F5F5F5F5F5F5F5F5F5E2F5F5F5E2E2EFF5F5F5E2F5F5F5F5F5F5F5F5F5F5F5F5F5F5F5F5E2F5F5F5F5F5F5F5F5F5F5F5F5F5F5F5F5F5F5F5F5F5F5F5F5F5F5F5F5F5F5F5F5F5F5F5F5F5F5F5F5F5F5F5F5F5F5F5F5F5F5F5F5F5F5F5F5F5F5F5F5F5F5F5F5F5F5
310
F5F5F5F5F5F5F5F5F5F5F5F5F5F5F5F5F5F5F5F5F5F5F5F5F5F5F5F5F5F5F5F5F5F5F5F5F5F5F5F5F5F5F5F5F5F5F5F5F5F5F5F5F5F5F5F5F5F5F5F5F5F5F5F5F5F5F5F5F5E2F5F5F5F5F5F5F5F5F5F5F5F5F5F5F5F5E2F5F5F5E2E2EFF5F5F5E2F5F5F5F5F5F5F5F5F5F5F5F5F5F5F5F5E2F5F5F5F5F5F5F5F5F5F5F5F5F5
310
F5F5F5F5F5F5F5F5F5F5F5F5F5F5F5F5F5F5F5F5F5F5F5F5F5F5F5F5F5F5F5F5F5F5F5F5F5F5F5F5F5F5F5F5F5F5F5F5F5F5F5F5F5F5F5F5F5F5F5F5F5F5F5F5F5F5F5F5F5F5F5F5F5F5F5F5F5F5F5F5F5F5F5F5F5F5F5F5F5F5F5F5F5F5F5F5F5F5F5F5F5F5F5F5F5F5F5F5F5F5F5F5F5F5F5F5F5F5F5F5F5F5E2F5F5F5F5
310
F5F5F5F5F5F5F5F5F5F5F5F5E2F5F5F5E2E2EFF5F5F5E2F5F5F5F5F5F5F5F5F5F5F5F5F5F5F5F5E2F5F5F5F5F5F5F5F5F5F5F5F5F5F5F5F5F5F5F5F5F5F5F5F5F5F5F5F5F5F5F5F5F5F5F5F5F5F5F5F5F5F5F5F5F5F5F5F5F5F5F5F5F5F5F5F5F5F5F5F5F5F5F5F5F5F5F5F5F5F5F5F5F5F5F5F5F5F5F5F5F5F5F5F5F5F5F5
310
F5F5F5F5F5F5F5F5F5F5F5F5F5F5F5F5F5F5F5F5F5F5F5F5F5F5F5F5F5F5F5F5F5F5F5F5F5F5F5F5F5F5F5F5F5F5F5F5E2F5F5F5F5F5F5F5F5F5F5F5F5F5F5F5F5E2F5F5F5E2E2EFF5F5F5E2F5F5F5F5F5F5F5F5F5F5F5F5F5F5F5F5E2F5F5F5F5F5F5F5F5F5F5F5F5F5F5F5F5F5F5F5F5F5F5F5F5F5F5F5F5F5F5F5F5F5F5
310
F5F5F5F5F5F5F5F5F5F5F5F5F5F5F5F5F5F5F5F5F5F5F5F5F5F5F5F5F5F5F5F5F5F5F5F5F5F5F5F5F5F5F5F5F5F5F5F5F5F5F5F5F5F5F5F5F5F5F5F5F5F5F5F5F5F5F5F5F5F5F5F5F5F5F5F5F5F5F5F5F5F5F5F5F5F5F5F5F5F5F5F5F5F5F5F5F5F5F5F5F5E2F5F5F5F5F5F5F5F5F5F5F5F5F5F5F5F5E2F5F5F5E2E2EFF5F5
310
F5E2F5F5F5F5F5F5F5F5F5F5F5F5F5F5F5F5E2F5F5F5F5F5F5F5F5F5F5F5F5F5F5F5F5F5F5F5F5F5F5F5F5F5F5F5F5F5F5F5F5F5F5F5F5F5F5F5F5F5F5F5F5F5F5F5F5F5F5F5F5F5F5F5F5F5F5F5F5F5F5F5F5F5F5F5F5F5F5F5F5F5F5F5F5F5F5F5F5F5F5F5F5F5F5F5F5F5F5F5F5F5F5F5F5F5F5F5F5F5F5F5F5F5F5F5F5
310
F5F5F5F5F5F5F5F5F5F5F5F5F5F5F5F5F5F5F5F5F5F5F5F5F5F5F5E2F5F5F5F5F5F5F5F5F5F5F5F5F5F5F5F5E2F5F5F5E2E2EFF5F5F5E2F5F5F5F5F5F5F5F5F5F5F5F5F5F5F5F5E2F5F5F5F5F5F5F5F5F5F5F5F5F5F5F5F5F5F5F5F5F5F5F5F5F5F5F5F5F5F5F5F5F5F5F5F5F5F5F5F5F5F5F5F5F5F5F5F5F5F5F5F5F5F5F5
310
F5F5F5F5F5F5F5F5F5F5F5F5F5F5F5F5F5F5F5F5F5F5F5F5F5F5F5F5F5F5F5F5F5F5F5F5F5F5F5F5F5F5F5F5F5F5F5F5F5F5F5F5F5F5F5F5F5F5F5F5F5F5F5F5F5F5F5F5F5F5F5F5F5F5F5F5F5F5F5F5E2F5F5F5F5F5F5F5F5F5F5F5F5F5F5F5F5E2F5F5F5E2E2EFF5F5F5E2F5F5F5F5F5F5F5F5F5F5F5F5F5F5F5F5E2F5F5
310
F5F5F5F5F5F5F5F5F5F5F5F5F5F5F5F5F5F5F5F5F5F5F5F5F5F5F5F5F5F5F5F5F5F5F5F5F5F5F5F5F5F5F5F5F5F5F5F5F5F5F5F5F5F5F5F5F5F5F5F5F5F5F5F5F5F5F5F5F5F5F5F5F5F5F5F5F5F5F5F5F5F5F5F5F5F5F5F5F5F5F5F5F5F5F5F5F5F5F5F5F5F5F5F5F5F5F5F5F5F5F5F5F5F5F5F5F5F5F5F5F5F5F5F5F5F5F5
310
F5F5F5F5F5F5E2F5F5F5F5F5F5F5F5F5F5F5F5F5F5F5F5E2F5F5F5E2E2EFF5F5F5E2F5F5F5F5F5F5F5F5F5F5F5F5F5F5F5F5E2F5F5F5F5F5F5F5F5F5F5F5F5F5F5F5F5F5F5F5F5F5F5F5F5F5F5F5F5F5F5F5F5F5F5F5F5F5F5F5F5F5F5F5F5F5F5F5F5F5F5F5F5F5F5F5F5F5F5F5F5F5F5F5F5F5F5F5F5F5F5F5F5F5F5F5F5
310
F5F5F5F5F5F5F5F5F5F5F5F5F5F5F5F5F5F5F5F5F5F5F5F5F5F5F5F5F5F5F5F5F5F5F5F5F5F5F5F5F5F5F5F5F5F5F5F5F5F5F5F5F5F5F5F5F5F5F5E2F5F5F5F5F5F5F5F5F5F5F5F5F5F5F5F5E2F5F5F5E2E2EFF5F5F5F5F5F5F5F5F5F5F5F5F5F5F5F5F5F5F5F5E2F5F5F5F5F5F5F5F5F5F5F5F5F5F5F5F5F5F5F5F5F5F5F5
310
F5F5F5F5F5F5F5F5F5F5F5F5F5F5F5F5F5F5F5F5F5F5F5F5F5F5F5F5F5F5F5F5F5F5F5F5F5F5F5F5F5F5F5F5F5F5F5F5F5F5F5F5F5F5F5F5F5F5F5F5F5F5F5F5F5F5F5F5F5F5F5F5F5F5F5F5F5F5F5F5F5F5F5F5F5F5F5F5F5F5F5F5F5F5F5F5F5F5F5F5F5F5F5F5F5F5F5F5F5F5F5F5E2F5F5F5F5F5F5F5F5F5F5F5F5F5F5
310
F5F5F5F5F5F5E2E2EFF5F5F5F5F5F5F5F5F5F5F5F5F5F5F5F5F5F5F5F5E2F5F5F5F5F5F5F5F5F5F5F5F5F5F5F5F5F5F5F5F5F5F5F5F5F5F5F5F5F5F5F5F5F5F5F5F5F5F5F5F5F5F5F5F5F5F5F5F5F5F5F5F5F5F5F5F5F5F5F5F5F5F5F5F5F5F5F5F5F5F5F5F5F5F5F5F5F5F5F5F5F5F5F5F5F5F5F5F5F5F5F5F5F5F5F5F5F5
310
F5F5F5F5F5F5F5F5F5F5F5F5F5F5F5F5F5F5F5F5F5F5F5F5F5F5F5F5F5F5F5F5F5F5F5F5F5F5E2F5F5F5F5F5F5F5F5F5F5F5F5F5F5F5F5F5F5F5F5E2E2EFF5F5F5F5F5F5F5F5F5F5F5F5F5F5F5F5F5F5F5F5E2F5F5F5F5F5F5F5F5F5F5F5F5F5F5F5F5F5F5F5F5F5F5F5F5F5F5F5F5F5F5F5F5F5F5F5F5F5F5F5F5F5F5F5F5
310
F5F5F5F5F5F5F5F5F5F5F5F5F5F5F5F5F5F5F5F5F5F5F5F5F5F5F5F5F5F5F5F5F5F5F5F5F5F5F5F5F5F5F5F5F5F5F5F5F5F5F5F5F5F5F5F5F5F5F5F5F5F5F5F5F5F5F5F5F5F5F5F5F5F5F5F5F5F5F5F5F5F5F5F5F5F5F5F5F5F5F5E2F5F5F5F5F5F5F5F5F5F5F5F5F5F5F5F5F5F5F5F5E2E2EFF5F5F5F5F5F5F5F5F5F5F5F5
310
F5F5F5F5F5F5F5F5E2F5F5F5F5F5F5F5F5F5F5F5F5F5F5F5F5F5F5F5F5F5F5F5F5F5F5F5F5F5F5F5F5F5F5F5F5F5F5F5F5F5F5F5F5F5F5F5F5F5F5F5F5F5F5F5F5F5F5F5F5F5F5F5F5F5F5F5F5F5F5F5F5F5F5F5F5F5F5F5F5F5F5F5F5F5F5F5F5F5F5F5F5F5F5F5F5F5F5F5F5F5F5F5F5F5F5F5F5F5F5F5F5F5F5F5F5F5F5
310
F5F5F5F5F5F5F5F5F5F5F5F5F5F5F5F5F5E2F5F5F5F5F5F5F5F5F5F5F5F5F5F5F5F5F5F5F5F5E2E2EFF5F5F5F5F5F5F5F5F5F5F5F5F5F5F5F5F5F5F5F5E2F5F5F5F5F5F5F5F5F5F5F5F5F5F5F5F5F5F5F5F5F5F5F5F5F5F5F5F5F5F5F5F5F5F5F5F5F5F5F5F5F5F5F5F5F5F5F5F5F5F5F5F5F5F5F5F5F5F5F5F5F5F5F5F5F5
310
F5F5F5F5F5F5F5F5F5F5F5F5F5F5F5F5F5F5F5F5F5F5F5F5F5F5F5F5F5F5F5F5F5F5F5F5F5F5F5F5F5F5F5F5F5F5F5F5F5F5F5F5F5F5F5F5F5F5F5F5F5F5F5F5F5F5F5F5F5F5E2F5F5F5F5F5F5F5F5F5F5F5F5F5F5F5F5F5F5F5F5E2E2EFF5F5F5F5F5F5F5F5F5F5F5F5F5F5F5F5F5F5F5F5E2F5F5F5F5F5F5F5F5F5F5F5F5
310
F5F5F5F5F5F5F5F5F5F5F5F5F5F5F5F5F5F5F5F5F5F5F5F5F5F5F5F5F5F5F5F5F5F5F5F5F5F5F5F5F5F5F5F5F5F5F5F5F5F5F5F5F5F5F5F5F5F5F5F5F5F5F5F5F5F5F5F5F5F5F5F5F5F5F5F5F5F5F5F5F5F5F5F5F5F5F5F5F5F5F5F5F5F5F5F5F5F5F5F5F5F5F5F5F5F5F5F5F5F5F5F5F5F5F5F5F5F5F5F5F5F5F5E2F5F5F5
310
F5F5F5F5F5F5F5F5F5F5F5F5F5F5F5F5F5E2E2EFF5F5F5F5F5F5F5F5F5F5F5F5F5F5F5F5F5F5F5F5E2F5F5F5F5F5F5F5F5F5F5F5F5F5F5F5F5F5F5F5F5F5F5F5F5F5F5F5F5F5F5F5F5F5F5F5F5F5F5F5F5F5F5F5F5F5F5F5F5F5F5F5F5F5F5F5F5F5F5F5F5F5F5F5F5F5F5F5F5F5F5F5F5F5F5F5F5F5F5F5F5F5F5F5F5F5F5
310
F5F5F5F5F5F5F5F5F5F5F5F5F5F5F5F5F5F5F5F5F5F5F5F5F5F5F5F5F5F5F5F5F5F5F5F5F5F5F5F5F5F5F5F5F5F5F5F5F5E2F5F5F5F5F5F5F5F5F5F5F5F5F5F5F5F5F5F5F5F5E2E2EFF5F5F5F5F5F5F5F5F5F5F5F5F5F5F5F5F5F5F5F5E2F5F5F5F5F5F5F5F5F5F5F5F5F5F5F5F5F5F5F5F5F5F5F5F5F5F5F5F5F5F5F5F5F5
310
F5F5F5F5F5F5F5F5F5F5F5F5F5F5F5F5F5F5F5F5F5F5F5F5F5F5F5F5F5F5F5F5F5F5F5F5F5F5F5F5F5F5F5F5F5F5F5F5F5F5F5F5F5F5F5F5F5F5F5F5F5F5F5F5F5F5F5F5F5F5F5F5F5F5F5F5F5F5F5F5F5F5F5F5F5F5F5F5F5F5F5F5F5F5F5F5F5F5F5F5F5F5E2F5F5F5F5F5F5F5F5F5F5F5F5F5F5F5F5F5F5F5F5E2E2EFF5
310
F5F5F5F5F5F5F5F5F5F5F5F5F5F5F5F5F5F5F5E2F5F5F5F5F5F5F5F5F5F5F5F5F5F5F5F5F5F5F5F5F5F5F5F5F5F5F5F5F5F5F5F5F5F5F5F5F5F5F5F5F5F5F5F5F5F5F5F5F5F5F5F5F5F5F5F5F5F5F5F5F5F5F5F5F5F5F5F5F5F5F5F5F5F5F5F5F5F5F5F5F5F5F5F5F5F5F5F5F5F5F5F5F5F5F5F5F5F5F5F5F5F5F5F5F5F5F5
310
F5F5F5F5F5F5F5F5F5F5F5F5F5F5F5F5F5F5F5F5F5F5F5F5F5F5F5F5E2F5F5F5F5F5F5F5F5F5F5F5F5F5F5F5F5F5F5F5F5E2E2EFF5F5F5E2F5F5F5F5F5F5F5F5F5F5F5F5F5F5F5F5E2F5F5F5F5F5F5F5F5F5F5F5F5F5F5F5F5F5F5F5F5F5F5F5F5F5F5F5F5F5F5F5F5F5F5F5F5F5F5F5F5F5F5F5F5F5F5F5F5F5F5F5F5F5F5
310
F5F5F5F5F5F5F5F5F5F5F5F5F5F5F5F5F5F5F5F5F5F5F5F5F5F5F5F5F5F5F5F5F5F5F5F5F5F5F5F5F5F5F5F5F5F5F5F5F5F5F5F5F5F5F5F5F5F5F5F5F5F5F5F5F5F5F5F5F5F5F5F5F5F5F5F5F5F5F5F5F5E2F5F5F5F5F5F5F5F5F5F5F5F5F5F5F5F5E2F5F5F5E2E2EFF5F5F5E2F5F5F5F5F5F5F5F5F5F5F5F5F5F5F5F5E2F5
310
F5F5F5F5F5F5F5F5F5F5F5F5F5F5F5F5F5F5F5F5F5F5F5F5F5F5F5F5F5F5F5F5F5F5F5F5F5F5F5F5F5F5F5F5F5F5F5F5F5F5F5F5F5F5F5F5F5F5F5F5F5F5F5F5F5F5F5F5F5F5F5F5F5F5F5F5F5F5F5F5F5F5F5F5F5F5F5F5F5F5F5F5F5F5F5F5F5F5F5F5F5F5F5F5F5F5F5F5F5F5F5F5F5F5F5F5F5F5F5F5F5F5F5F5F5F5F5
310
F5F5F5F5F5F5F5E2F5F5F5F5F5F5F5F5F5F5F5F5F5F5F5F5E2F5F5F5E2E2EFF5F5F5E2F5F5F5F5F5F5F5F5F5F5F5F5F5F5F5F5E2F5F5F5F5F5F5F5F5F5F5F5F5F5F5F5F5F5F5F5F5F5F5F5F5F5F5F5F5F5F5F5F5F5F5F5F5F5F5F5F5F5F5F5F5F5F5F5F5F5F5F5F5F5F5F5F5F5F5F5F5F5F5F5F5F5F5F5F5F5F5F5F5F5F5F5
310
F5F5F5F5F5F5F5F5F5F5F5F5F5F5F5F5F5F5F5F5F5F5F5F5F5F5F5F5F5F5F5F5F5F5F5F5F5F5F5F5F5F5F5F5F5F5F5F5F5F5F5F5F5F5F5F5F5F5F5F5E2F5F5F5F5F5F5F5F5F5F5F5F5F5F5F5F5E2F5F5F5E2E2EFF5F5F5E2F5F5F5F5F5F5F5F5F5F5F5F5F5F5F5F5E2F5F5F5F5F5F5F5F5F5F5F5F5F5F5F5F5F5F5F5F5F5F5
310
F5F5F5F5F5F5F5F5F5F5F5F5F5F5F5F5F5F5F5F5F5F5F5F5F5F5F5F5F5F5F5F5F5F5F5F5F5F5F5F5F5F5F5F5F5F5F5F5F5F5F5F5F5F5F5F5F5F5F5F5F5F5F5F5F5F5F5F5F5F5F5F5F5F5F5F5F5F5F5F5F5F5F5F5F5F5F5F5F5F5F5F5F5F5F5F5F5F5F5F5F5F5F5F5F5F5F5F5F5F5F5F5F5E2F5F5F5F5F5F5F5F5F5F5F5F5F5
310
F5F5F5E2F5F5F5E2E2EFF5F5F5E2F5F5F5F5F5F5F5F5F5F5F5F5F5F5F5F5E2F5F5F5F5F5F5F5F5F5F5F5F5F5F5F5F5F5F5F5F5F5F5F5F5F5F5F5F5F5F5F5F5F5F5F5F5F5F5F5F5F5F5F5F5F5F5F5F5F5F5F5F5F5F5F5F5F5F5F5F5F5F5F5F5F5F5F5F5F5F5F5F5F5F5F5F5F5F5F5F5F5F5F5F5F5F5F5F5F5F5F5F5F5F5F5F5
310
F5F5F5F5F5F5F5F5F5F5F5F5F5F5F5F5F5F5F5F5F5F5F5F5F5F5F5F5F5F5F5F5F5F5F5F5F5F5F5E2F5F5F5F5F5F5F5F5F5F5F5F5F5F5F5F5E2F5F5F5E2E2EFF5F5F5E2F5F5F5F5F5F5F5F5F5F5F5F5F5F5F5F5E2F5F5F5F5F5F5F5F5F5F5F5F5F5F5F5F5F5F5F5F5F5F5F5F5F5F5F5F5F5F5F5F5F5F5F5F5F5F5F5F5F5F5F5
310
F5F5F5F5F5F5F5F5F5F5F5F5F5F5F5F5F5F5F5F5F5F5F5F5F5F5F5F5F5F5F5F5F5F5F5F5F5F5F5F5F5F5F5F5F5F5F5F5F5F5F5F5F5F5F5F5F5F5F5F5F5F5F5F5F5F5F5F5F5F5F5F5F5F5F5F5F5F5F5F5F5F5F5F5F5F5F5F5F5F5F5F5E2F5F5F5F5F5F5F5F5F5F5F5F5F5F5F5F5E2F5F5F5E2E2EFF5F5F5E2F5F5F5F5F5F5F5
310
F5F5F5F5F5F5F5F5F5E2F5F5F5F5F5F5F5F5F5F5F5F5F5F5F5F5F5F5F5F5F5F5F5F5F5F5F5F5F5F5F5F5F5F5F5F5F5F5F5F5F5F5F5F5F5F5F5F5F5F5F5F5F5F5F5F5F5F5F5F5F5F5F5F5F5F5F5F5F5F5F5F5F5F5F5F5F5F5F5F5F5F5F5F5F5F5F5F5F5F5F5F5F5F5F5F5F5F5F5F5F5F5F5F5F5F5F5F5F5F5F5F5F5F5F5F5F5
310
F5F5F5F5F5F5F5F5F5F5F5F5F5F5F5F5F5F5E2F5F5F5F5F5F5F5F5F5F5F5F5F5F5F5F5E2F5F5F5E2E2EFF5F5F5E2F5F5F5F5F5F5F5F5F5F5F5F5F5F5F5F5E2F5F5F5F5F5F5F5F5F5F5F5F5F5F5F5F5F5F5F5F5F5F5F5F5F5F5F5F5F5F5F5F5F5F5F5F5F5F5F5F5F5F5F5F5F5F5F5F5F5F5F5F5F5F5F5F5F5F5F5F5F5F5F5F5
310
F5F5F5F5F5F5F5F5F5F5F5F5F5F5F5F5F5F5F5F5F5F5F5F5F5F5F5F5F5F5F5F5F5F5F5F5F5F5F5F5F5F5F5F5F5F5F5F5F5F5F5F5F5F5F5F5F5F5F5F5F5F5F5F5F5F5F5F5F5F5F5E2F5F5F5F5F5F5F5F5F5F5F5F5F5F5F5F5E2F5F5F5E2E2EFF5F5F5E2F5F5F5F5F5F5F5F5F5F5F5F5F5F5F5F5E2F5F5F5F5F5F5F5F5F5F5F5
310
F5F5F5F5F5F5F5F5F5F5F5F5F5F5F5F5F5F5F5F5F5F5F5F5F5F5F5F5F5F5F5F5F5F5F5F5F5F5F5F5F5F5F5F5F5F5F5F5F5F5F5F5F5F5F5F5F5F5F5F5F5F5F5F5F5F5F5F5F5F5F5F5F5F5F5F5F5F5F5F5F5F5F5F5F5F5F5F5F5F5F5F5F5F5F5F5F5F5F5F5F5F5F5F5F5F5F5F5F5F5F5F5F5F5F5F5F5F5F5F5F5F5F5F5E2F5F5
310
F5F5F5F5F5F5F5F5F5F5F5F5F5F5E2F5F5F5E2E2EFF5F5F5E2F5F5F5F5F5F5F5F5F5F5F5F5F5F5F5F5E2F5F5F5F5F5F5F5F5F5F5F5F5F5F5F5F5F5F5F5F5F5F5F5F5F5F5F5F5F5F5F5F5F5F5F5F5F5F5F5F5F5F5F5F5F5F5F5F5F5F5F5F5F5F5F5F5F5F5F5F5F5F5F5F5F5F5F5F5F5F5F5F5F5F5F5F5F5F5F5F5F5F5F5F5F5
310
F5F5F5F5F5F5F5F5F5F5F5F5F5F5F5F5F5F5F5F5F5F5F5F5F5F5F5F5F5F5F5F5F5F5F5F5F5F5F5F5F5F5F5F5F5F5F5F5F5F5E2F5F5F5F5F5F5F5F5F5F5F5F5F5F5F5F5E2F5F5F5E2E2EFF5F5F5E2F5F5F5F5F5F5F5F5F5F5F5F5F5F5F5F5E2F5F5F5F5F5F5F5F5F5F5F5F5F5F5F5F5F5F5F5F5F5F5F5F5F5F5F5F5F5F5F5F5
310
F5F5F5F5F5F5F5F5F5F5F5F5F5F5F5F5F5F5F5F5F5F5F5F5F5F5F5F5F5F5F5F5F5F5F5F5F5F5F5F5F5F5F5F5F5F5F5F5F5F5F5F5F5F5F5F5F5F5F5F5F5F5F5F5F5F5F5F5F5F5F5F5F5F5F5F5F5F5F5F5F5F5F5F5F5F5F5F5F5F5F5F5F5F5F5F5F5F5F5F5F5F5F5E2F5F5F5F5F5F5F5F5F5F5F5F5F5F5F5F5E2F5F5F5E2E2EF
310
F5F5F5E2F5F5F5F5F5F5F5F5F5F5F5F5F5F5F5F5E2F5F5F5F5F5F5F5F5F5F5F5F5F5F5F5F5F5F5F5F5F5F5F5F5F5F5F5F5F5F5F5F5F5F5F5F5F5F5F5F5F5F5F5F5F5F5F5F5F5F5F5F5F5F5F5F5F5F5F5F5F5F5F5F5F5F5F5F5F5F5F5F5F5F5F5F5F5F5F5F5F5F5F5F5F5F5F5F5F5F5F5F5F5F5F5F5F5F5F5F5F5F5F5F5F5F5
310
F5F5F5F5F5F5F5F5F5F5F5F5F5F5F5F5F5F5F5F5F5F5F5F5F5F5F5F5F5E2F5F5F5F5F5F5F5F5F5F5F5F5F5F5F5F5E2F5F5F5E2E2EFF5F5F5E2F5F5F5F5F5F5F5F5F5F5F5F5F5F5F5F5E2F5F5F5F5F5F5F5F5F5F5F5F5F5F5F5F5F5F5F5F5F5F5F5F5F5F5F5F5F5F5F5F5F5F5F5F5F5F5F5F5F5F5F5F5F5F5F5F5F5F5F5F5F5
310
F5F5F5F5F5F5F5F5F5F5F5F5F5F5F5F5F5F5F5F5F5F5F5F5F5F5F5F5F5F5F5F5F5F5F5F5F5F5F5F5F5F5F5F5F5F5F5F5F5F5F5F5F5F5F5F5F5F5F5F5F5F5F5F5F5F5F5F5F5F5F5F5F5F5F5F5F5F5F5F5F5F5E2F5F5F5F5F5F5F5F5F5F5F5F5F5F5F5F5E2F5F5F5E2E2EFF5F5F5E2F5F5F5F5F5F5F5F5F5F5F5F5F5F5F5F5E2
310
F5F5F5F5F5F5F5F5F5F5F5F5F5F5F5F5F5F5F5F5F5F5F5F5F5F5F5F5F5F5F5F5F5F5F5F5F5F5F5F5F5F5F5F5F5F5F5F5F5F5F5F5F5F5F5F5F5F5F5F5F5F5F5F5F5F5F5F5F5F5F5F5F5F5F5F5F5F5F5F5F5F5F5F5F5F5F5F5F5F5F5F5F5F5F5F5F5F5F5F5F5F5F5F5F5F5F5F5F5F5F5F5F5F5F5F5F5F5F5F5F5F5F5F5F5F5F5
310
F5F5F5F5F5F5F5F5E2F5F5F5F5F5F5F5F5F5F5F5F5F5F5F5F5E2F5F5F5E2E2EFF5F5F5E2F5F5F5F5F5F5F5F5F5F5F5F5F5F5F5F5E2F5F5F5F5F5F5F5F5F5F5F5F5F5F5F5F5F5F5F5F5F5F5F5F5F5F5F5F5F5F5F5F5F5F5F5F5F5F5F5F5F5F5F5F5F5F5F5F5F5F5F5F5F5F5F5F5F5F5F5F5F5F5F5F5F5F5F5F5F5F5F5F5F5F5
310
F5F5F5F5F5F5F5F5F5F5F5F5F5F5F5F5F5F5F5F5F5F5F5F5F5F5F5F5F5F5F5F5F5F5F5F5F5F5F5F5F5F5F5F5F5F5F5F5F5F5F5F5F5F5F5F5F5F5F5F5F5E2F5F5F5F5F5F5F5F5F5F5F5F5F5F5F5F5E2F5F5F5E2E2EFF5F5F5E2F5F5F5F5F5F5F5F5F5F5F5F5F5F5F5F5E2F5F5F5F5F5F5F5F5F5F5F5F5F5F5F5F5F5F5F5F5F5
310
F5F5F5F5F5F5F5F5F5F5F5F5F5F5F5F5F5F5F5F5F5F5F5F5F5F5F5F5F5F5F5F5F5F5F5F5F5F5F5F5F5F5F5F5F5F5F5F5F5F5F5F5F5F5F5F5F5F5F5F5F5F5F5F5F5F5F5F5F5F5F5F5F5F5F5F5F5F5F5F5F5F5F5F5F5F5F5F5F5F5F5F5F5F5F5F5F5F5F5F5F5F5F5F5F5F5F5F5F5F5F5F5F5F5E2F5F5F5F5F5F5F5F5F5F5F5F5
310
F5F5F5F5E2F5F5F5E2E2EFF5F5F5E2F5F5F5F5F5F5F5F5F5F5F5F5F5F5F5F5E2F5F5F5F5F5F5F5F5F5F5F5F5F5F5F5F5F5F5F5F5F5F5F5F5F5F5F5F5F5F5F5F5F5F5F5F5F5F5F5F5F5F5F5F5F5F5F5F5F5F5F5F5F5F5F5F5F5F5F5F5F5F5F5F5F5F5F5F5F5F5F5F5F5F5F5F5F5F5F5F5F5F5F5F5F5F5F5F5F5F5F5F5F5F5F5
310
F5F5F5F5F5F5F5F5F5F5F5F5F5F5F5F5F5F5F5F5F5F5F5F5F5F5F5F5F5F5F5F5F5F5F5F5F5F5F5F5E2F5F5F5F5F5F5F5F5F5F5F5F5F5F5F5F5E2F5F5F5E2E2EFF5F5F5F5F5F5F5F5F5F5F5F5F5F5F5F5F5F5F5F5E2F5F5F5F5F5F5F5F5F5F5F5F5F5F5F5F5F5F5F5F5F5F5F5F5F5F5F5F5F5F5F5F5F5F5F5F5F5F5F5F5F5F5
310
F5F5F5F5F5F5F5F5F5F5F5F5F5F5F5F5F5F5F5F5F5F5F5F5F5F5F5F5F5F5F5F5F5F5F5F5F5F5F5F5F5F5F5F5F5F5F5F5F5F5F5F5F5F5F5F5F5F5F5F5F5F5F5F5F5F5F5F5F5F5F5F5F5F5F5F5F5F5F5F5F5F5F5F5F5F5F5F5F5F5F5F5F5E2F5F5F5F5F5F5F5F5F5F5F5F5F5F5F5F5F5F5F5F5E2E2EFF5F5F5F5F5F5F5F5F5F5
310
F5F5F5F5F5F5F5F5F5F5E2F5F5F5F5F5F5F5F5F5F5F5F5F5F5F5F5F5F5F5F5F5F5F5F5F5F5F5F5F5F5F5F5F5F5F5F5F5F5F5F5F5F5F5F5F5F5F5F5F5F5F5F5F5F5F5F5F5F5F5F5F5F5F5F5F5F5F5F5F5F5F5F5F5F5F5F5F5F5F5F5F5F5F5F5F5F5F5F5F5F5F5F5F5F5F5F5F5F5F5F5F5F5F5F5F5F5F5F5F5F5F5F5F5F5F5F5
310
F5F5F5F5F5F5F5F5F5F5F5F5F5F5F5F5F5F5F5E2F5F5F5F5F5F5F5F5F5F5F5F5F5F5F5F5F5F5F5F5E2E2EFF5F5F5F5F5F5F5F5F5F5F5F5F5F5F5F5F5F5F5F5E2F5F5F5F5F5F5F5F5F5F5F5F5F5F5F5F5F5F5F5F5F5F5F5F5F5F5F5F5F5F5F5F5F5F5F5F5F5F5F5F5F5F5F5F5F5F5F5F5F5F5F5F5F5F5F5F5F5F5F5F5F5F5F5
310
F5F5F5F5F5F5F5F5F5F5F5F5F5F5F5F5F5F5F5F5F5F5F5F5F5F5F5F5F5F5F5F5F5F5F5F5F5F5F5F5F5F5F5F5F5F5F5F5F5F5F5F5F5F5F5F5F5F5F5F5F5F5F5F5F5F5F5F5F5F5F5F5E2F5F5F5F5F5F5F5F5F5F5F5F5F5F5F5F5F5F5F5F5E2E2EFF5F5F5F5F5F5F5F5F5F5F5F5F5F5F5F5F5F5F5F5E2F5F5F5F5F5F5F5F5F5F5
310
F5F5F5F5F5F5F5F5F5F5F5F5F5F5F5F5F5F5F5F5F5F5F5F5F5F5F5F5F5F5F5F5F5F5F5F5F5F5F5F5F5F5F5F5F5F5F5F5F5F5F5F5F5F5F5F5F5F5F5F5F5F5F5F5F5F5F5F5F5F5F5F5F5F5F5F5F5F5F5F5F5F5F5F5F5F5F5F5F5F5F5F5F5F5F5F5F5F5F5F5F5F5F5F5F5F5F5F5F5F5F5F5F5F5F5F5F5F5F5F5F5F5F5F5F5E2F5
310
F5F5F5F5F5F5F5F5F5F5F5F5F5F5F5F5F5F5F5E2E2EFF5F5F5F5F5F5F5F5F5F5F5F5F5F5F5F5F5F5F5F5E2F5F5F5F5F5F5F5F5F5F5F5F5F5F5F5F5F5F5F5F5F5F5F5F5F5F5F5F5F5F5F5F5F5F5F5F5F5F5F5F5F5F5F5F5F5F5F5F5F5F5F5F5F5F5F5F5F5F5F5F5F5F5F5F5F5F5F5F5F5F5F5F5F5F5F5F5F5F5F5F5F5F5F5F5
310
F5F5F5F5F5F5F5F5F5F5F5F5F5F5F5F5F5F5F5F5F5F5F5F5F5F5F5F5F5F5F5F5F5F5F5F5F5F5F5F5F5F5F5F5F5F5F5F5F5F5F5E2F5F5F5F5F5F5F5F5F5F5F5F5F5F5F5F5F5F5F5F5E2E2EFF5F5F5F5F5F5F5F5F5F5F5F5F5F5F5F5F5F5F5F5E2F5F5F5F5F5F5F5F5F5F5F5F5F5F5F5F5F5F5F5F5F5F5F5F5F5F5F5F5F5F5F5
310
F5F5F5F5F5F5F5F5F5F5F5F5F5F5F5F5F5F5F5F5F5F5F5F5F5F5F5F5F5F5F5F5F5F5F5F5F5F5F5F5F5F5F5F5F5F5F5F5F5F5F5F5F5F5F5F5F5F5F5F5F5F5F5F5F5F5F5F5F5F5F5F5F5F5F5F5F5F5F5F5F5F5F5F5F5F5F5F5F5F5F5F5F5F5F5F5F5F5F5F5F5F5F5F5E2F5F5F5F5F5F5F5F5F5F5F5F5F5F5F5F5F5F5F5F5E2E2
310
EFF5F5F5F5F5F5F5F5F5F5F5F5F5F5F5F5F5F5F5F5E2F5F5F5F5F5F5F5F5F5F5F5F5F5F5F5F5F5F5F5F5F5F5F5F5F5F5F5F5F5F5F5F5F5F5F5F5F5F5F5F5F5F5F5F5F5F5F5F5F5F5F5F5F5F5F5F5F5F5F5F5F5F5F5F5F5F5F5F5F5F5F5F5F5F5F5F5F5F5F5F5F5F5F5F5F5F5F5F5F5F5F5F5F5F5F5F5F5F5F5F5F5F5F5F5F5
310
F5F5F5F5F5F5F5F5F5F5F5F5F5F5F5F5F5F5F5F5F5F5F5F5F5F5F5F5F5F5E2F5F5F5F5F5F5F5F5F5F5F5F5F5F5F5F5F5F5F5F5E2E2EFF5F5F5F5F5F5F5F5F5F5F5F5F5F5F5F5F5F5F5F5E2F5F5F5F5F5F5F5F5F5F5F5F5F5F5F5F5F5F5F5F5F5F5F5F5F5F5F5F5F5F5F5F5F5F5F5F5F5F5F5F5F5F5F5F5F5F5F5F5F5F5F5F5
310
F5F5F5F5F5F5F5F5F5F5F5F5F5F5F5F5F5F5F5F5F5F5F5F5F5F5F5F5F5F5F5F5F5F5F5F5F5F5F5F5F5F5F5F5F5F5F5F5F5F5F5F5F5F5F5F5F5F5F5F5F5F5F5F5F5F5F5F5F5F5F5F5F5F5F5F5F5F5F5F5F5F5F5E2F5F5F5F5F5F5F5F5F5F5F5F5F5F5F5F5F5F5F5F5E2E2EFF5F5F5F5F5F5F5F5F5F5F5F5F5F5F5F5F5F5F5F5
310
E2F5F5F5F5F5F5F5F5F5F5F5F5F5F5F5F5F5F5F5F5F5F5F5F5F5F5F5F5F5F5F5F5F5F5F5F5F5F5F5F5F5F5F5F5F5F5F5F5F5F5F5F5F5F5F5F5F5F5F5F5F5F5F5F5F5F5F5F5F5F5F5F5F5F5F5F5F5F5F5F5F5F5F5F5F5F5F5F5F5F5F5F5F5F5F5F5F5F5F5F5F5F5F5F5F5F5F5F5F5F5F5F5F5F5F5F5F5F5F5F5F5F5F5F5F5F5
310
F5F5F5F5F5F5F5F5F5E2F5F5F5F5F5F5F5F5F5F5F5F5F5F5F5F5F5F5F5F5E2E2EFF5F5F5E2F5F5F5F5F5F5F5F5F5F5F5F5F5F5F5F5E2F5F5F5F5F5F5F5F5F5F5F5F5F5F5F5F5F5F5F5F5F5F5F5F5F5F5F5F5F5F5F5F5F5F5F5F5F5F5F5F5F5F5F5F5F5F5F5F5F5F5F5F5F5F5F5F5F5F5F5F5F5F5F5F5F5F5F5F5F5F5F5F5F5
310
F5F5F5F5F5F5F5F5F5F5F5F5F5F5F5F5F5F5F5F5F5F5F5F5F5F5F5F5F5F5F5F5F5F5F5F5F5F5F5F5F5F5F5F5F5F5F5F5F5F5F5F5F5F5F5F5F5F5F5F5F5F5E2F5F5F5F5F5F5F5F5F5F5F5F5F5F5F5F5E2F5F5F5E2E2EFF5F5F5E2F5F5F5F5F5F5F5F5F5F5F5F5F5F5F5F5E2F5F5F5F5F5F5F5F5F5F5F5F5F5F5F5F5F5F5F5F5
310
F5F5F5F5F5F5F5F5F5F5F5F5F5F5F5F5F5F5F5F5F5F5F5F5F5F5F5F5F5F5F5F5F5F5F5F5F5F5F5F5F5F5F5F5F5F5F5F5F5F5F5F5F5F5F5F5F5F5F5F5F5F5F5F5F5F5F5F5F5F5F5F5F5F5F5F5F5F5F5F5F5F5F5F5F5F5F5F5F5F5F5F5F5F5F5F5F5F5F5F5F5F5F5F5F5F5F5F5F5F5F5F5F5F5F5E2F5F5F5F5F5F5F5F5F5F5F5
310
F5F5F5F5F5E2F5F5F5E2E2EFF5F5F5E2F5F5F5F5F5F5F5F5F5F5F5F5F5F5F5F5E2F5F5F5F5F5F5F5F5F5F5F5F5F5F5F5F5F5F5F5F5F5F5F5F5F5F5F5F5F5F5F5F5F5F5F5F5F5F5F5F5F5F5F5F5F5F5F5F5F5F5F5F5F5F5F5F5F5F5F5F5F5F5F5F5F5F5F5F5F5F5F5F5F5F5F5F5F5F5F5F5F5F5F5F5F5F5F5F5F5F5F5F5F5F5
310
F5F5F5F5F5F5F5F5F5F5F5F5F5F5F5F5F5F5F5F5F5F5F5F5F5F5F5F5F5F5F5F5F5F5F5F5F5F5F5F5F5E2F5F5F5F5F5F5F5F5F5F5F5F5F5F5F5F5E2F5F5F5E2E2EFF5F5F5E2F5F5F5F5F5F5F5F5F5F5F5F5F5F5F5F5E2F5F5F5F5F5F5F5F5F5F5F5F5F5F5F5F5F5F5F5F5F5F5F5F5F5F5F5F5F5F5F5F5F5F5F5F5F5F5F5F5F5
310
F5F5F5F5F5F5F5F5F5F5F5F5F5F5F5F5F5F5F5F5F5F5F5F5F5F5F5F5F5F5F5F5F5F5F5F5F5F5F5F5F5F5F5F5F5F5F5F5F5F5F5F5F5F5F5F5F5F5F5F5F5F5F5F5F5F5F5F5F5F5F5F5F5F5F5F5F5F5F5F5F5F5F5F5F5F5F5F5F5F5F5F5F5F5E2F5F5F5F5F5F5F5F5F5F5F5F5F5F5F5F5E2F5F5F5E2E2EFF5F5F5E2F5F5F5F5F5
310
F5F5F5F5F5F5F5F5F5F5F5E2F5F5F5F5F5F5F5F5F5F5F5F5F5F5F5F5F5F5F5F5F5F5F5F5F5F5F5F5F5F5F5F5F5F5F5F5F5F5F5F5F5F5F5F5F5F5F5F5F5F5F5F5F5F5F5F5F5F5F5F5F5F5F5F5F5F5F5F5F5F5F5F5F5F5F5F5F5F5F5F5F5F5F5F5F5F5F5F5F5F5F5F5F5F5F5F5F5F5F5F5F5F5F5F5F5F5F5F5F5F5F5F5F5F5F5
310
F5F5F5F5F5F5F5F5F5F5F5F5F5F5F5F5F5F5F5F5E2F5F5F5F5F5F5F5F5F5F5F5F5F5F5F5F5E2F5F5F5E2E2EFF5F5F5E2F5F5F5F5F5F5F5F5F5F5F5F5F5F5F5F5E2F5F5F5F5F5F5F5F5F5F5F5F5F5F5F5F5F5F5F5F5F5F5F5F5F5F5F5F5F5F5F5F5F5F5F5F5F5F5F5F5F5F5F5F5F5F5F5F5F5F5F5F5F5F5F5F5F5F5F5F5F5F5
310
F5F5F5F5F5F5F5F5F5F5F5F5F5F5F5F5F5F5F5F5F5F5F5F5F5F5F5F5F5F5F5F5F5F5F5F5F5F5F5F5F5F5F5F5F5F5F5F5F5F5F5F5F5F5F5F5F5F5F5F5F5F5F5F5F5F5F5F5F5F5F5F5F5E2F5F5F5F5F5F5F5F5F5F5F5F5F5F5F5F5E2F5F5F5E2E2EFF5F5F5E2F5F5F5F5F5F5F5F5F5F5F5F5F5F5F5F5E2F5F5F5F5F5F5F5F5F5
310
F5F5F5F5F5F5F5F5F5F5F5F5F5F5F5F5F5F5F5F5F5F5F5F5F5F5F5F5F5F5F5F5F5F5F5F5F5F5F5F5F5F5F5F5F5F5F5F5F5F5F5F5F5F5F5F5F5F5F5F5F5F5F5F5F5F5F5F5F5F5F5F5F5F5F5F5F5F5F5F5F5F5F5F5F5F5F5F5F5F5F5F5F5F5F5F5F5F5F5F5F5F5F5F5F5F5F5F5F5F5F5F5F5F5F5F5F5F5F5F5F5F5F5F5F5F5E2
310
F5F5F5F5F5F5F5F5F5F5F5F5F5F5F5F5E2F5F5F5E2E2EFF5F5F5E2F5F5F5F5F5F5F5F5F5F5F5F5F5F5F5F5E2F5F5F5F5F5F5F5F5F5F5F5F5F5F5F5F5F5F5F5F5F5F5F5F5F5F5F5F5F5F5F5F5F5F5F5F5F5F5F5F5F5F5F5F5F5F5F5F5F5F5F5F5F5F5F5F5F5F5F5F5F5F5F5F5F5F5F5F5F5F5F5F5F5F5F5F5F5F5F5F5F5F5F5
310
F5F5F5F5F5F5F5F5F5F5F5F5F5F5F5F5F5F5F5F5F5F5F5F5F5F5F5F5F5F5F5F5F5F5F5F5F5F5F5F5F5F5F5F5F5F5F5F5F5F5F5F5E2F5F5F5F5F5F5F5F5F5F5F5F5F5F5F5F5E2F5F5F5E2E2EFF5F5F5E2F5F5F5F5F5F5F5F5F5F5F5F5F5F5F5F5E2F5F5F5F5F5F5F5F5F5F5F5F5F5F5F5F5F5F5F5F5F5F5F5F5F5F5F5F5F5F5
310
F5F5F5F5F5F5F5F5F5F5F5F5F5F5F5F5F5F5F5F5F5F5F5F5F5F5F5F5F5F5F5F5F5F5F5F5F5F5F5F5F5F5F5F5F5F5F5F5F5F5F5F5F5F5F5F5F5F5F5F5F5F5F5F5F5F5F5F5F5F5F5F5F5F5F5F5F5F5F5F5F5F5F5F5F5F5F5F5F5F5F5F5F5F5F5F5F5F5F5F5F5F5F5F5F5E2F5F5F5F5F5F5F5F5F5F5F5F5F5F5F5F5E2F5F5F5E2
310
E2EFF5F5F5E2F5F5F5F5F5F5F5F5F5F5F5F5F5F5F5F5E2F5F5F5F5F5F5F5F5F5F5F5F5F5F5F5F5F5F5F5F5F5F5F5F5F5F5F5F5F5F5F5F5F5F5F5F5F5F5F5F5F5F5F5F5F5F5F5F5F5F5F5F5F5F5F5F5F5F5F5F5F5F5F5F5F5F5F5F5F5F5F5F5F5F5F5F5F5F5F5F5F5F5F5F5F5F5F5F5F5F5F5F5F5F5F5F5F5F5F5F5F5F5F5F5
310
F5F5F5F5F5F5F5F5F5F5F5F5F5F5F5F5F5F5F5F5F5F5F5F5F5F5F5F5F5F5F5E2F5F5F5F5F5F5F5F5F5F5F5F5F5F5F5F5E2F5F5F5E2E2EFF5F5F5E2F5F5F5F5F5F5F5F5F5F5F5F5F5F5F5F5E2F5F5F5F5F5F5F5F5F5F5F5F5F5F5F5F5F5F5F5F5F5F5F5F5F5F5F5F5F5F5F5F5F5F5F5F5F5F5F5F5F5F5F5F5F5F5F5F5F5F5F5
310
F5F5F5F5F5F5F5F5F5F5F5F5F5F5F5F5F5F5F5F5F5F5F5F5F5F5F5F5F5F5F5F5F5F5F5F5F5F5F5F5F5F5F5F5F5F5F5F5F5F5F5F5F5F5F5F5F5F5F5F5F5F5F5F5F5F5F5F5F5F5F5F5F5F5F5F5F5F5F5F5F5F5F5F5E2F5F5F5F5F5F5F5F5F5F5F5F5F5F5F5F5E2F5F5F5E2E2EFF5F5F5E2F5F5F5F5F5F5F5F5F5F5F5F5F5F5F5
310
F5E2F5F5F5F5F5F5F5F5F5F5F5F5F5F5F5F5F5F5F5F5F5F5F5F5F5F5F5F5F5F5F5F5F5F5F5F5F5F5F5F5F5F5F5F5F5F5F5F5F5F5F5F5F5F5F5F5F5F5F5F5F5F5F5F5F5F5F5F5F5F5F5F5F5F5F5F5F5F5F5F5F5F5F5F5F5F5F5F5F5F5F5F5F5F5F5F5F5F5F5F5F5F5F5F5F5F5F5F5F5F5F5F5F5F5F5F5F5F5F5F5F5F5F5F5F5
310
F5F5F5F5F5F5F5F5F5F5E2F5F5F5F5F5F5F5F5F5F5F5F5F5F5F5F5E2F5F5F5E2E2EFF5F5F5E2F5F5F5F5F5F5F5F5F5F5F5F5F5F5F5F5E2F5F5F5F5F5F5F5F5F5F5F5F5F5F5F5F5F5F5F5F5F5F5F5F5F5F5F5F5F5F5F5F5F5F5F5F5F5F5F5F5F5F5F5F5F5F5F5F5F5F5F5F5F5F5F5F5F5F5F5F5F5F5F5F5F5F5F5F5F5F5F5F5
310
F5F5F5F5F5F5F5F5F5F5F5F5F5F5F5F5F5F5F5F5F5F5F5F5F5F5F5F5F5F5F5F5F5F5F5F5F5F5F5F5F5F5F5F5F5F5F5F5F5F5F5F5F5F5F5F5F5F5F5F5F5F5F5E2F5F5F5F5F5F5F5F5F5F5F5F5F5F5F5F5E2F5F5F5E2E2EFF5F5F5E2F5F5F5F5F5F5F5F5F5F5F5F5F5F5F5F5E2F5F5F5F5F5F5F5F5F5F5F5F5F5F5F5F5F5F5F5
310
F5F5F5F5F5F5F5F5F5F5F5F5F5F5F5F5F5F5F5F5F5F5F5F5F5F5F5F5F5F5F5F5F5F5F5F5F5F5F5F5F5F5F5F5F5F5F5F5F5F5F5F5F5F5F5F5F5F5F5F5F5F5F5F5F5F5F5F5F5F5F5F5F5F5F5F5F5F5F5F5F5F5F5F5F5F5F5F5F5F5F5F5F5F5F5F5F5F5F5F5F5F5F5F5F5F5F5F5F5F5F5F5F5F5F5F5E2F5F5F5F5F5F5F5F5F5F5
310
F5F5F5F5F5F5E2F5F5F5E2E2EFF5F5F5E2F5F5F5F5F5F5F5F5F5F5F5F5F5F5F5F5E2F5F5F5F5F5F5F5F5F5F5F5F5F5F5F5F5F5F5F5F5F5F5F5F5F5F5F5F5F5F5F5F5F5F5F5F5F5F5F5F5F5F5F5F5F5F5F5F5F5F5F5F5F5F5F5F5F5F5F5F5F5F5F5F5F5F5F5F5F5F5F5F5F5F5F5F5F5F5F5F5F5F5F5F5F5F5F5F5F5F5F5F5F5
310
F5F5F5F5F5F5F5F5F5F5F5F5F5F5F5F5F5F5F5F5F5F5F5F5F5F5F5F5F5F5F5F5F5F5F5F5F5F5F5F5F5F5E2F5F5F5F5F5F5F5F5F5F5F5F5F5F5F5F5E2F5F5F5E2E2EFF5F5F5E2F5F5F5F5F5F5F5F5F5F5F5F5F5F5F5F5E2F5F5F5F5F5F5F5F5F5F5F5F5F5F5F5F5F5F5F5F5F5F5F5F5F5F5F5F5F5F5F5F5F5F5F5F5F5F5F5F5
310
F5F5F5F5F5F5F5F5F5F5F5F5F5F5F5F5F5F5F5F5F5F5F5F5F5F5F5F5F5F5F5F5F5F5F5F5F5F5F5F5F5F5F5F5F5F5F5F5F5F5F5F5F5F5F5F5F5F5F5F5F5F5F5F5F5F5F5F5F5F5F5F5F5F5F5F5F5F5F5F5F5F5F5F5F5F5F5F5F5F5F5F5F5F5F5E2F5F5F5F5F5F5F5F5F5F5F5F5F5F5F5F5E2F5F5F5E2E2EFF5F5F5E2F5F5F5F5
310
F5F5F5F5F5F5F5F5F5F5F5F5E2F5F5F5F5F5F5F5F5F5F5F5F5F5F5F5F5F5F5F5F5F5F5F5F5F5F5F5F5F5F5F5F5F5F5F5F5F5F5F5F5F5F5F5F5F5F5F5F5F5F5F5F5F5F5F5F5F5F5F5F5F5F5F5F5F5F5F5F5F5F5F5F5F5F5F5F5F5F5F5F5F5F5F5F5F5F5F5F5F5F5F5F5F5F5F5F5F5F5F5F5F5F5F5F5F5F5F5F5F5F5F5F5F5F5
310
F5F5F5F5F5F5F5F5F5F5F5F5F5F5F5F5F5F5F5F5F5E2F5F5F5F5F5F5F5F5F5F5F5F5F5F5F5F5E2F5F5F5E2E2EFF5F5F5F5F5F5F5F5F5F5F5F5F5F5F5F5F5F5F5F5E2F5F5F5F5F5F5F5F5F5F5F5F5F5F5F5F5F5F5F5F5F5F5F5F5F5F5F5F5F5F5F5F5F5F5F5F5F5F5F5F5F5F5F5F5F5F5F5F5F5F5F5F5F5F5F5F5F5F5F5F5F5
310
F5F5F5F5F5F5F5F5F5F5F5F5F5F5F5F5F5F5F5F5F5F5F5F5F5F5F5F5F5F5F5F5F5F5F5F5F5F5F5F5F5F5F5F5F5F5F5F5F5F5F5F5F5F5F5F5F5F5F5F5F5F5F5F5F5F5F5F5F5F5F5F5F5F5E2F5F5F5F5F5F5F5F5F5F5F5F5F5F5F5F5F5F5F5F5E2E2EFF5F5F5F5F5F5F5F5F5F5F5F5F5F5F5F5F5F5F5F5E2F5F5F5F5F5F5F5F5
310
F5F5F5F5F5F5F5F5F5F5F5F5F5F5F5F5F5F5F5F5F5F5F5F5F5F5F5F5F5F5F5F5F5F5F5F5F5F5F5F5F5F5F5F5F5F5F5F5F5F5F5F5F5F5F5F5F5F5F5F5F5F5F5F5F5F5F5F5F5F5F5F5F5F5F5F5F5F5F5F5F5F5F5F5F5F5F5F5F5F5F5F5F5F5F5F5F5F5F5F5F5F5F5F5F5F5F5F5F5F5F5F5F5F5F5F5F5F5F5F5F5F5F5F5F5F5F5
310
E2F5F5F5F5F5F5F5F5F5F5F5F5F5F5F5F5F5F5F5F5E2E2EFF5F5F5F5F5F5F5F5F5F5F5F5F5F5F5F5F5F5F5F5E2F5F5F5F5F5F5F5F5F5F5F5F5F5F5F5F5F5F5F5F5F5F5F5F5F5F5F5F5F5F5F5F5F5F5F5F5F5F5F5F5F5F5F5F5F5F5F5F5F5F5F5F5F5F5F5F5F5F5F5F5F5F5F5F5F5F5F5F5F5F5F5F5F5F5F5F5F5F5F5F5F5F5
310
F5F5F5F5F5F5F5F5F5F5F5F5F5F5F5F5F5F5F5F5F5F5F5F5F5F5F5F5F5F5F5F5F5F5F5F5F5F5F5F5F5F5F5F5F5F5F5F5F5F5F5F5F5E2F5F5F5F5F5F5F5F5F5F5F5F5F5F5F5F5F5F5F5F5E2E2EFF5F5F5F5F5F5F5F5F5F5F5F5F5F5F5F5F5F5F5F5E2F5F5F5F5F5F5F5F5F5F5F5F5F5F5F5F5F5F5F5F5F5F5F5F5F5F5F5F5F5
310
F5F5F5F5F5F5F5F5F5F5F5F5F5F5F5F5F5F5F5F5F5F5F5F5F5F5F5F5F5F5F5F5F5F5F5F5F5F5F5F5F5F5F5F5F5F5F5F5F5F5F5F5F5F5F5F5F5F5F5F5F5F5F5F5F5F5F5F5F5F5F5F5F5F5F5F5F5F5F5F5F5F5F5F5F5F5F5F5F5F5F5F5F5F5F5F5F5F5F5F5F5F5F5F5F5F5E2F5F5F5F5F5F5F5F5F5F5F5F5F5F5F5F5F5F5F5F5
310
E2E2EFF5F5F5F5F5F5F5F5F5F5F5F5F5F5F5F5F5F5F5F5E2F5F5F5F5F5F5F5F5F5F5F5F5F5F5F5F5F5F5F5F5F5F5F5F5F5F5F5F5F5F5F5F5F5F5F5F5F5F5F5F5F5F5F5F5F5F5F5F5F5F5F5F5F5F5F5F5F5F5F5F5F5F5F5F5F5F5F5F5F5F5F5F5F5F5F5F5F5F5F5F5F5F5F5F5F5F5F5F5F5F5F5F5F5F5F5F5F5F5F5F5F5F5F5
310
F5F5F5F5F5F5F5F5F5F5F5F5F5F5F5F5F5F5F5F5F5F5F5F5F5F5F5F5F5F5F5F5E2F5F5F5F5F5F5F5F5F5F5F5F5F5F5F5F5F5F5F5F5E2E2EFF5F5F5F5F5F5F5F5F5F5F5F5F5F5F5F5F5F5F5F5E2F5F5F5F5F5F5F5F5F5F5F5F5F5F5F5F5F5F5F5F5F5F5F5F5F5F5F5F5F5F5F5F5F5F5F5F5F5F5F5F5F5F5F5F5F5F5F5F5F5F5
310
F5F5F5F5F5F5F5F5F5F5F5F5F5F5F5F5F5F5F5F5F5F5F5F5F5F5F5F5F5F5F5F5F5F5F5F5F5F5F5F5F5F5F5F5F5F5F5F5F5F5F5F5F5F5F5F5F5F5F5F5F5F5F5F5F5F5F5F5F5F5F5F5F5F5F5F5F5F5F5F5F5F5F5F5F5E2F5F5F5F5F5F5F5F5F5F5F5F5F5F5F5F5F5F5F5F5E2E2EFF5F5F5F5F5F5F5F5F5F5F5F5F5F5F5F5F5F5
310
F5F5E2F5F5F5F5F5F5F5F5F5F5F5F5F5F5F5F5F5F5F5F5F5F5F5F5F5F5F5F5F5F5F5F5F5F5F5F5F5F5F5F5F5F5F5F5F5F5F5F5F5F5F5F5F5F5F5F5F5F5F5F5F5F5F5F5F5F5F5F5F5F5F5F5F5F5F5F5F5F5F5F5F5F5F5F5F5F5F5F5F5F5F5F5F5F5F5F5F5F5F5F5F5F5F5F5F5F5F5F5F5F5F5F5F5F5F5F5F5F5F5F5F5F5F5F5
310
F5F5F5F5F5F5F5F5F5F5F5E2F5F5F5F5F5F5F5F5F5F5F5F5F5F5F5F5F5F5F5F5E2E2EFF5F5F5F5F5F5F5F5F5F5F5F5F5F5F5F5F5F5F5F5E2F5F5F5F5F5F5F5F5F5F5F5F5F5F5F5F5F5F5F5F5F5F5F5F5F5F5F5F5F5F5F5F5F5F5F5F5F5F5F5F5F5F5F5F5F5F5F5F5F5F5F5F5F5F5F5F5F5F5F5F5F5F5F5F5F5F5F5F5F5F5F5
310
F5F5F5F5F5F5F5F5F5F5F5F5F5F5F5F5F5F5F5F5F5F5F5F5F5F5F5F5F5F5F5F5F5F5F5F5F5F5F5F5F5F5F5F5F5F5F5F5F5F5F5F5F5F5F5F5F5F5F5F5F5F5F5F5E2F5F5F5F5F5F5F5F5F5F5F5F5F5F5F5F5F5F5F5F5E2E2EFF5F5F5F5F5F5F5F5F5F5F5F5F5F5F5F5F5F5F5F5E2F5F5F5F5F5F5F5F5F5F5F5F5F5F5F5F5F5F5
310
F5F5F5F5F5F5F5F5F5F5F5F5F5F5F5F5F5F5F5F5F5F5F5F5F5F5F5F5F5F5F5F5F5F5F5F5F5F5F5F5F5F5F5F5F5F5F5F5F5F5F5F5F5F5F5F5F5F5F5F5F5F5F5F5F5F5F5F5F5F5F5F5F5F5F5F5F5F5F5F5F5F5F5F5F5F5F5F5F5F5F5F5F5F5F5F5F5F5F5F5F5F5F5F5F5F5F5F5F5F5F5F5F5F5F5F5F5E2F5F5F5F5F5F5F5F5F5
310
F5F5F5F5F5F5F5F5F5F5F5E2E2EFF5F5F5E2F5F5F5F5F5F5F5F5F5F5F5F5F5F5F5F5E2F5F5F5F5F5F5F5F5F5F5F5F5F5F5F5F5F5F5F5F5F5F5F5F5F5F5F5F5F5F5F5F5F5F5F5F5F5F5F5F5F5F5F5F5F5F5F5F5F5F5F5F5F5F5F5F5F5F5F5F5F5F5F5F5F5F5F5F5F5F5F5F5F5F5F5F5F5F5F5F5F5F5F5F5F5F5F5F5F5F5F5F5
310
F5F5F5F5F5F5F5F5F5F5F5F5F5F5F5F5F5F5F5F5F5F5F5F5F5F5F5F5F5F5F5F5F5F5F5F5F5F5F5F5F5F5F5E2F5F5F5F5F5F5F5F5F5F5F5F5F5F5F5F5E2F5F5F5E2E2EFF5F5F5E2F5F5F5F5F5F5F5F5F5F5F5F5F5F5F5F5E2F5F5F5F5F5F5F5F5F5F5F5F5F5F5F5F5F5F5F5F5F5F5F5F5F5F5F5F5F5F5F5F5F5F5F5F5F5F5F5
310
F5F5F5F5F5F5F5F5F5F5F5F5F5F5F5F5F5F5F5F5F5F5F5F5F5F5F5F5F5F5F5F5F5F5F5F5F5F5F5F5F5F5F5F5F5F5F5F5F5F5F5F5F5F5F5F5F5F5F5F5F5F5F5F5F5F5F5F5F5F5F5F5F5F5F5F5F5F5F5F5F5F5F5F5F5F5F5F5F5F5F5F5F5F5F5F5E2F5F5F5F5F5F5F5F5F5F5F5F5F5F5F5F5E2F5F5F5E2E2EFF5F5F5E2F5F5F5
310
F5F5F5F5F5F5F5F5F5F5F5F5F5E2F5F5F5F5F5F5F5F5F5F5F5F5F5F5F5F5F5F5F5F5F5F5F5F5F5F5F5F5F5F5F5F5F5F5F5F5F5F5F5F5F5F5F5F5F5F5F5F5F5F5F5F5F5F5F5F5F5F5F5F5F5F5F5F5F5F5F5F5F5F5F5F5F5F5F5F5F5F5F5F5F5F5F5F5F5F5F5F5F5F5F5F5F5F5F5F5F5F5F5F5F5F5F5F5F5F5F5F5F5F5F5F5F5
310
F5F5F5F5F5F5F5F5F5F5F5F5F5F5F5F5F5F5F5F5F5F5E2F5F5F5F5F5F5F5F5F5F5F5F5F5F5F5F5E2F5F5F5E2E2EFF5F5F5E2F5F5F5F5F5F5F5F5F5F5F5F5F5F5F5F5E2F5F5F5F5F5F5F5F5F5F5F5F5F5F5F5F5F5F5F5F5F5F5F5F5F5F5F5F5F5F5F5F5F5F5F5F5F5F5F5F5F5F5F5F5F5F5F5F5F5F5F5F5F5F5F5F5F5F5F5F5
310
F5F5F5F5F5F5F5F5F5F5F5F5F5F5F5F5F5F5F5F5F5F5F5F5F5F5F5F5F5F5F5F5F5F5F5F5F5F5F5F5F5F5F5F5F5F5F5F5F5F5F5F5F5F5F5F5F5F5F5F5F5F5F5F5F5F5F5F5F5F5F5F5F5F5F5E2F5F5F5F5F5F5F5F5F5F5F5F5F5F5F5F5E2F5F5F5E2E2EFF5F5F5E2F5F5F5F5F5F5F5F5F5F5F5F5F5F5F5F5E2F5F5F5F5F5F5F5
310
F5F5F5F5F5F5F5F5F5F5F5F5F5F5F5F5F5F5F5F5F5F5F5F5F5F5F5F5F5F5F5F5F5F5F5F5F5F5F5F5F5F5F5F5F5F5F5F5F5F5F5F5F5F5F5F5F5F5F5F5F5F5F5F5F5F5F5F5F5F5F5F5F5F5F5F5F5F5F5F5F5F5F5F5F5F5F5F5F5F5F5F5F5F5F5F5F5F5F5F5F5F5F5F5F5F5F5F5F5F5F5F5F5F5F5F5F5F5F5F5F5F5F5F5F5F5F5
310
F5E2F5F5F5F5F5F5F5F5F5F5F5F5F5F5F5F5E2F5F5F5E2E2EFF5F5F5E2F5F5F5F5F5F5F5F5F5F5F5F5F5F5F5F5E2F5F5F5F5F5F5F5F5F5F5F5F5F5F5F5F5F5F5F5F5F5F5F5F5F5F5F5F5F5F5F5F5F5F5F5F5F5F5F5F5F5F5F5F5F5F5F5F5F5F5F5F5F5F5F5F5F5F5F5F5F5F5F5F5F5F5F5F5F5F5F5F5F5F5F5F5F5F5F5F5F5
310
F5F5F5F5F5F5F5F5F5F5F5F5F5F5F5F5F5F5F5F5F5F5F5F5F5F5F5F5F5F5F5F5F5F5F5F5F5F5F5F5F5F5F5F5F5F5F5F5F5F5F5F5F5F5E2F5F5F5F5F5F5F5F5F5F5F5F5F5F5F5F5E2F5F5F5E2E2EFF5F5F5E2F5F5F5F5F5F5F5F5F5F5F5F5F5F5F5F5E2F5F5F5F5F5F5F5F5F5F5F5F5F5F5F5F5F5F5F5F5F5F5F5F5F5F5F5F5
310
F5F5F5F5F5F5F5F5F5F5F5F5F5F5F5F5F5F5F5F5F5F5F5F5F5F5F5F5F5F5F5F5F5F5F5F5F5F5F5F5F5F5F5F5F5F5F5F5F5F5F5F5F5F5F5F5F5F5F5F5F5F5F5F5F5F5F5F5F5F5F5F5F5F5F5F5F5F5F5F5F5F5F5F5F5F5F5F5F5F5F5F5F5F5F5F5F5F5F5F5F5F5F5F5F5F5F5E2F5F5F5F5F5F5F5F5F5F5F5F5F5F5F5F5E2F5F5
310
F5E2E2EFF5F5F5E2F5F5F5F5F5F5F5F5F5F5F5F5F5F5F5F5E2F5F5F5F5F5F5F5F5F5F5F5F5F5F5F5F5F5F5F5F5F5F5F5F5F5F5F5F5F5F5F5F5F5F5F5F5F5F5F5F5F5F5F5F5F5F5F5F5F5F5F5F5F5F5F5F5F5F5F5F5F5F5F5F5F5F5F5F5F5F5F5F5F5F5F5F5F5F5F5F5F5F5F5F5F5F5F5F5F5F5F5F5F5F5F5F5F5F5F5F5F5F5
310
F5F5F5F5F5F5F5F5F5F5F5F5F5F5F5F5F5F5F5F5F5F5F5F5F5F5F5F5F5F5F5F5F5E2F5F5F5F5F5F5F5F5F5F5F5F5F5F5F5F5E2F5F5F5E2E2EFF5F5F5E2F5F5F5F5F5F5F5F5F5F5F5F5F5F5F5F5E2F5F5F5F5F5F5F5F5F5F5F5F5F5F5F5F5F5F5F5F5F5F5F5F5F5F5F5F5F5F5F5F5F5F5F5F5F5F5F5F5F5F5F5F5F5F5F5F5F5
310
F5F5F5F5F5F5F5F5F5F5F5F5F5F5F5F5F5F5F5F5F5F5F5F5F5F5F5F5F5F5F5F5F5F5F5F5F5F5F5F5F5F5F5F5F5F5F5F5F5F5F5F5F5F5F5F5F5F5F5F5F5F5F5F5F5F5F5F5F5F5F5F5F5F5F5F5F5F5F5F5F5F5F5F5F5F5E2F5F5F5F5F5F5F5F5F5F5F5F5F5F5F5F5E2F5F5F5E2E2EFF5F5F5E2F5F5F5F5F5F5F5F5F5F5F5F5F5
310
F5F5F5E2F5F5F5F5F5F5F5F5F5F5F5F5F5F5F5F5F5F5F5F5F5F5F5F5F5F5F5F5F5F5F5F5F5F5F5F5F5F5F5F5F5F5F5F5F5F5F5F5F5F5F5F5F5F5F5F5F5F5F5F5F5F5F5F5F5F5F5F5F5F5F5F5F5F5F5F5F5F5F5F5F5F5F5F5F5F5F5F5F5F5F5F5F5F5F5F5F5F5F5F5F5F5F5F5F5F5F5F5F5F5F5F5F5F5F5F5F5F5F5F5F5F5F5
310
F5F5F5F5F5F5F5F5F5F5F5F5E2F5F5F5F5F5F5F5F5F5F5F5F5F5F5F5F5E2F5F5F5E2E2EFF5F5F5E2F5F5F5F5F5F5F5F5F5F5F5F5F5F5F5F5E2F5F5F5F5F5F5F5F5F5F5F5F5F5F5F5F5F5F5F5F5F5F5F5F5F5F5F5F5F5F5F5F5F5F5F5F5F5F5F5F5F5F5F5F5F5F5F5F5F5F5F5F5F5F5F5F5F5F5F5F5F5F5F5F5F5F5F5F5F5F5
310
F5F5F5F5F5F5F5F5F5F5F5F5F5F5F5F5F5F5F5F5F5F5F5F5F5F5F5F5F5F5F5F5F5F5F5F5F5F5F5F5F5F5F5F5F5F5F5F5F5F5F5F5F5F5F5F5F5F5F5F5F5F5F5F5F5E2F5F5F5F5F5F5F5F5F5F5F5F5F5F5F5F5E2F5F5F5E2E2EFF5F5F5E2F5F5F5F5F5F5F5F5F5F5F5F5F5F5F5F5E2F5F5F5F5F5F5F5F5F5F5F5F5F5F5F5F5F5
310
F5F5F5F5F5F5F5F5F5F5F5F5F5F5F5F5F5F5F5F5F5F5F5F5F5F5F5F5F5F5F5F5F5F5F5F5F5F5F5F5F5F5F5F5F5F5F5F5F5F5F5F5F5F5F5F5F5F5F5F5F5F5F5F5F5F5F5F5F5F5F5F5F5F5F5F5F5F5F5F5F5F5F5F5F5F5F5F5F5F5F5F5F5F5F5F5F5F5F5F5F5F5F5F5F5F5F5F5F5F5F5F5F5F5F5F5F5F5E2F5F5F5F5F5F5F5F5
310
F5F5F5F5F5F5F5F5E2F5F5F5E2E2EFF5F5F5E2F5F5F5F5F5F5F5F5F5F5F5F5F5F5F5F5E2F5F5F5F5F5F5F5F5F5F5F5F5F5F5F5F5F5F5F5F5F5F5F5F5F5F5F5F5F5F5F5F5F5F5F5F5F5F5F5F5F5F5F5F5F5F5F5F5F5F5F5F5F5F5F5F5F5F5F5F5F5F5F5F5F5F5F5F5F5F5F5F5F5F5F5F5F5F5F5F5F5F5F5F5F5F5F5F5F5F5F5
310
F5F5F5F5F5F5F5F5F5F5F5F5F5F5F5F5F5F5F5F5F5F5F5F5F5F5F5F5F5F5F5F5F5F5F5F5F5F5F5F5F5F5F5F5E2F5F5F5F5F5F5F5F5F5F5F5F5F5F5F5F5E2F5F5F5E2E2EFF5F5F5E2F5F5F5F5F5F5F5F5F5F5F5F5F5F5F5F5E2F5F5F5F5F5F5F5F5F5F5F5F5F5F5F5F5F5F5F5F5F5F5F5F5F5F5F5F5F5F5F5F5F5F5F5F5F5F5
310
F5F5F5F5F5F5F5F5F5F5F5F5F5F5F5F5F5F5F5F5F5F5F5F5F5F5F5F5F5F5F5F5F5F5F5F5F5F5F5F5F5F5F5F5F5F5F5F5F5F5F5F5F5F5F5F5F5F5F5F5F5F5F5F5F5F5F5F5F5F5F5F5F5F5F5F5F5F5F5F5F5F5F5F5F5F5F5F5F5F5F5F5F5F5F5F5F5E2F5F5F5F5F5F5F5F5F5F5F5F5F5F5F5F5E2F5F5F5E2E2EFF5F5F5E2F5F5
310
F5F5F5F5F5F5F5F5F5F5F5F5F5F5E2F5F5F5F5F5F5F5F5F5F5F5F5F5F5F5F5F5F5F5F5F5F5F5F5F5F5F5F5F5F5F5F5F5F5F5F5F5F5F5F5F5F5F5F5F5F5F5F5F5F5F5F5F5F5F5F5F5F5F5F5F5F5F5F5F5F5F5F5F5F5F5F5F5F5F5F5F5F5F5F5F5F5F5F5F5F5F5F5F5F5F5F5F5F5F5F5F5F5F5F5F5F5F5F5F5F5F5F5F5F5F5F5
310
F5F5F5F5F5F5F5F5F5F5F5F5F5F5F5F5F5F5F5F5F5F5F5E2F5F5F5F5F5F5F5F5F5F5F5F5F5F5F5F5E2F5F5F5E2E2EFF5F5F5E2F5F5F5F5F5F5F5F5F5F5F5F5F5F5F5F5E2F5F5F5F5F5F5F5F5F5F5F5F5F5F5F5F5F5F5F5F5F5F5F5F5F5F5F5F5F5F5F5F5F5F5F5F5F5F5F5F5F5F5F5F5F5F5F5F5F5F5F5F5F5F5F5F5F5F5F5
310
F5F5F5F5F5F5F5F5F5F5F5F5F5F5F5F5F5F5F5F5F5F5F5F5F5F5F5F5F5F5F5F5F5F5F5F5F5F5F5F5F5F5F5F5F5F5F5F5F5F5F5F5F5F5F5F5F5F5F5F5F5F5F5F5F5F5F5F5F5F5F5F5F5F5F5F5E2F5F5F5F5F5F5F5F5F5F5F5F5F5F5F5F5E2F5F5F5E2E2EFF5F5F5E2F5F5F5F5F5F5F5F5F5F5F5F5F5F5F5F5E2F5F5F5F5F5F5
310
F5F5F5F5F5F5F5F5F5F5F5F5F5F5F5F5F5F5F5F5F5F5F5F5F5F5F5F5F5F5F5F5F5F5F5F5F5F5F5F5F5F5F5F5F5F5F5F5F5F5F5F5F5F5F5F5F5F5F5F5F5F5F5F5F5F5F5F5F5F5F5F5F5F5F5F5F5F5F5F5F5F5F5F5F5F5F5F5F5F5F5F5F5F5F5F5F5F5F5F5F5F5F5F5F5F5F5F5F5F5F5F5F5F5F5F5F5F5F5F5F5F5F5F5F5F5F5
310
F5F5E2F5F5F5F5F5F5F5F5F5F5F5F5F5F5F5F5E2F5F5F5E2E2EFF5F5F5F5F5F5F5F5F5F5F5F5F5F5F5F5F5F5F5F5E2F5F5F5F5F5F5F5F5F5F5F5F5F5F5F5F5F5F5F5F5F5F5F5F5F5F5F5F5F5F5F5F5F5F5F5F5F5F5F5F5F5F5F5F5F5F5F5F5F5F5F5F5F5F5F5F5F5F5F5F5F5F5F5F5F5F5F5F5F5F5F5F5F5F5F5F5F5F5F5F5
310
F5F5F5F5F5F5F5F5F5F5F5F5F5F5F5F5F5F5F5F5F5F5F5F5F5F5F5F5F5F5F5F5F5F5F5F5F5F5F5F5F5F5F5F5F5F5F5F5F5F5F5F5F5F5F5E2F5F5F5F5F5F5F5F5F5F5F5F5F5F5F5F5F5F5F5F5E2E2EFF5F5F5F5F5F5F5F5F5F5F5F5F5F5F5F5F5F5F5F5E2F5F5F5F5F5F5F5F5F5F5F5F5F5F5F5F5F5F5F5F5F5F5F5F5F5F5F5
310
F5F5F5F5F5F5F5F5F5F5F5F5F5F5F5F5F5F5F5F5F5F5F5F5F5F5F5F5F5F5F5F5F5F5F5F5F5F5F5F5F5F5F5F5F5F5F5F5F5F5F5F5F5F5F5F5F5F5F5F5F5F5F5F5F5F5F5F5F5F5F5F5F5F5F5F5F5F5F5F5F5F5F5F5F5F5F5F5F5F5F5F5F5F5F5F5F5F5F5F5F5F5F5F5F5F5F5F5E2F5F5F5F5F5F5F5F5F5F5F5F5F5F5F5F5F5F5
310
F5F5E2E2EFF5F5F5F5F5F5F5F5F5F5F5F5F5F5F5F5F5F5F5F5E2F5F5F5F5F5F5F5F5F5F5F5F5F5F5F5F5F5F5F5F5F5F5F5F5F5F5F5F5F5F5F5F5F5F5F5F5F5F5F5F5F5F5F5F5F5F5F5F5F5F5F5F5F5F5F5F5F5F5F5F5F5F5F5F5F5F5F5F5F5F5F5F5F5F5F5F5F5F5F5F5F5F5F5F5F5F5F5F5F5F5F5F5F5F5F5F5F5F5F5F5F5
310
F5F5F5F5F5F5F5F5F5F5F5F5F5F5F5F5F5F5F5F5F5F5F5F5F5F5F5F5F5F5F5F5F5F5E2F5F5F5F5F5F5F5F5F5F5F5F5F5F5F5F5F5F5F5F5E2E2EFF5F5F5F5F5F5F5F5F5F5F5F5F5F5F5F5F5F5F5F5E2F5F5F5F5F5F5F5F5F5F5F5F5F5F5F5F5F5F5F5F5F5F5F5F5F5F5F5F5F5F5F5F5F5F5F5F5F5F5F5F5F5F5F5F5F5F5F5F5
310
F5F5F5F5F5F5F5F5F5F5F5F5F5F5F5F5F5F5F5F5F5F5F5F5F5F5F5F5F5F5F5F5F5F5F5F5F5F5F5F5F5F5F5F5F5F5F5F5F5F5F5F5F5F5F5F5F5F5F5F5F5F5F5F5F5F5F5F5F5F5F5F5F5F5F5F5F5F5F5F5F5F5F5F5F5F5F5E2F5F5F5F5F5F5F5F5F5F5F5F5F5F5F5F5F5F5F5F5E2E2EFF5F5F5F5F5F5F5F5F5F5F5F5F5F5F5F5
310
F5F5F5F5E2E2E2E2E2E2E2E2E2E2E2E2E2E2E2E2E2E2E2E2E2E2E2E2E2E2E2E2E2E2E2E2E2E2E2E2E2E2E2E2E2E2E2E2E2E2E2E2E2E2E2E2E2E2E2E2E2E2E2E2E2E2E2E2E2E2E2E2E2E2E2E2E2E2E2E2E2E2E2E2E2E2E2E2E2E2E2E2E2E2E2E2E2E2E2E2E2E2E2E2E2E2E2E2E2E2E2E2E2E2E2E2E2E2E2E2E2E2E2E2E2E2E2
310
E2E2E2E2E2E2E2E2E2E2E2E2E2E2F5F5F5F5F5F5F5F5F5F5F5F5F5F5F5F5F5F5F5F5E2E2EFF5F5F5F5F5F5F5F5F5F5F5F5F5F5F5F5F5F5F5F5F5F5F5F5F5F5F5F5F5F5F5F5F5F5F5F5F5F5F5F5F5F5F5F5F5F5F5F5F5F5F5F5F5F5F5F5F5F5F5F5F5F5F5F5F5F5F5F5F5F5F5F5F5F5F5F5F5F5F5F5F5F5F5F5F5F5F5F5F5F5
310
F5F5F5F5F5F5F5F5F5F5F5F5F5F5F5F5F5F5F5F5F5F5F5F5F5F5F5F5F5F5F5F5F5F5F5F5F5F5F5F5F5F5F5F5F5F5F5F5F5F5F5F5F5F5F5F5F5F5F5F5F5F5F5F5F5F5F5F5F5F5F5F5F5F5F5F5F5F5F5F5F5F5F5F5F5F5F5E2E2EFF5F5F5F5F5F5F5F5F5F5F5F5F5F5F5F5F5F5F5F5F5F5F5F5F5F5F5F5F5F5F5F5F5F5F5F5F5
310
F5F5F5F5F5F5F5F5F5F5F5F5F5F5F5F5F5F5F5F5F5F5F5F5F5F5F5F5F5F5F5F5F5F5F5F5F5F5F5F5F5F5F5F5F5F5F5F5F5F5F5F5F5F5F5F5F5F5F5F5F5F5F5F5F5F5F5F5F5F5F5F5F5F5F5F5F5F5F5F5F5F5F5F5F5F5F5F5F5F5F5F5F5F5F5F5F5F5F5F5F5F5F5F5F5F5F5F5F5F5F5F5F5F5F5F5F5F5F5F5F5F5F5F5F5F5F5
310
F5F5F5F5F5F5F5F5F5F5F5F5F5E2E2EFF5F5F5F5F5F5F5F5F5F5F5F5F5F5F5F5F5F5F5F5F5F5F5F5F5F5F5F5F5F5F5F5F5F5F5F5F5F5F5F5F5F5F5F5F5F5F5F5F5F5F5F5F5F5F5F5F5F5F5F5F5F5F5F5F5F5F5F5F5F5F5F5F5F5F5F5F5F5F5F5F5F5F5F5F5F5F5F5F5F5F5F5F5F5F5F5F5F5F5F5F5F5F5F5F5F5F5F5F5F5F5
310
F5F5F5F5F5F5F5F5F5F5F5F5F5F5F5F5F5F5F5F5F5F5F5F5F5F5F5F5F5F5F5F5F5F5F5F5F5F5F5F5F5F5F5F5F5F5F5F5F5F5F5F5F5F5F5F5F5F5F5F5F5F5F5F5F5F5E2E2EFF5F5F5F5F5F5F5F5F5F5F5F5F5F5F5F5F5F5F5F5F5F5F5F5F5F5F5F5F5F5F5F5F5F5F5F5F5F5F5F5F5F5F5F5F5F5F5F5F5F5F5F5F5F5F5F5F5F5
310
F5F5F5F5F5F5F5F5F5F5F5F5F5F5F5F5F5F5F5F5F5F5F5F5F5F5F5F5F5F5F5F5F5F5F5F5F5F5F5F5F5F5F5F5F5F5F5F5F5F5F5F5F5F5F5F5F5F5F5F5F5F5F5F5F5F5F5F5F5F5F5F5F5F5F5F5F5F5F5F5F5F5F5F5F5F5F5F5F5F5F5F5F5F5F5F5F5F5F5F5F5F5F5F5F5F5F5F5F5F5F5F5F5F5F5F5F5F5F5E2E2EFF5F5F5E2F5
310
F5F5F5F5F5F5F5F5F5F5F5F5F5F5F5F5F5F5F5F5F5F5F5F5F5F5F5F5F5F5F5F5F5F5F5F5F5F5F5F5F5F5F5F5F5F5F5F5F5F5F5F5F5F5F5F5F5F5F5F5F5F5F5F5F5F5F5F5F5F5F5F5F5F5F5F5F5F5F5F5F5F5F5F5F5F5F5F5F5F5F5F5F5F5F5F5F5F5F5F5F5F5F5F5F5F5F5F5F5F5F5F5F5F5F5F5F5F5F5F5F5F5F5F5F5F5F5
310
F5F5F5F5F5F5F5F5F5F5F5F5F5F5F5F5F5F5F5F5F5F5F5F5F5F5F5F5F5F5F5F5F5F5F5F5F5F5F5F5F5E2F5F5F5E2E2EFF5F5F5E2F5F5F5F5F5F5F5F5F5F5F5F5F5F5F5F5F5F5F5F5F5F5F5F5F5F5F5F5F5F5F5F5F5F5F5F5F5F5F5F5F5F5F5F5F5F5F5F5F5F5F5F5F5F5F5F5F5F5F5F5F5F5F5F5F5F5F5F5F5F5F5F5F5F5F5
310
F5F5F5F5F5F5F5F5F5F5F5F5F5F5F5F5F5F5F5F5F5F5F5F5F5F5F5F5F5F5F5F5F5F5F5F5F5F5F5F5F5F5F5F5F5F5F5F5F5F5F5F5F5F5F5F5F5F5F5F5F5F5F5F5F5F5F5F5F5F5F5F5F5F5F5F5F5F5F5F5F5F5F5F5F5F5F5F5F5F5F5F5F5F5E2F5F5F5E2E2EFF5F5F5E2F5F5F5F5F5F5F5F5F5F5F5F5F5F5F5F5F5F5F5F5F5F5
310
F5F5F5F5F5F5F5F5F5F5F5F5F5F5F5F5F5F5F5F5F5F5F5F5F5F5F5F5F5F5F5F5F5F5F5F5F5F5F5F5F5F5F5F5F5F5F5F5F5F5F5F5F5F5F5F5F5F5F5F5F5F5F5F5F5F5F5F5F5F5F5F5F5F5F5F5F5F5F5F5F5F5F5F5F5F5F5F5F5F5F5F5F5F5F5F5F5F5F5F5F5F5F5F5F5F5F5F5F5F5F5F5F5F5F5F5F5F5F5F5F5F5F5F5F5F5F5
310
F5F5F5F5F5F5F5F5F5F5F5F5F5F5F5F5F5F5F5F5E2F5F5F5E2E2EFF5F5F5E2F5F5F5F5F5F5F5F5F5F5F5F5F5F5F5F5F5F5F5F5F5F5F5F5F5F5F5F5F5F5F5F5F5F5F5F5F5F5F5F5F5F5F5F5F5F5F5F5F5F5F5F5F5F5F5F5F5F5F5F5F5F5F5F5F5F5F5F5F5F5F5F5F5F5F5F5F5F5F5F5F5F5F5F5F5F5F5F5F5F5F5F5F5F5F5F5
310
F5F5F5F5F5F5F5F5F5F5F5F5F5F5F5F5F5F5F5F5F5F5F5F5F5F5F5F5F5F5F5F5F5F5F5F5F5F5F5F5F5F5F5F5F5F5F5F5F5F5F5F5F5F5F5F5F5F5F5F5F5F5F5F5F5F5F5F5F5F5F5F5F5E2F5F5F5E2E2EFF5F5F5E2F5F5F5F5F5F5F5F5F5F5F5F5F5F5F5F5F5F5F5F5F5F5F5F5F5F5F5F5F5F5F5F5F5F5F5F5F5F5F5F5F5F5F5
310
F5F5F5F5F5F5F5F5F5F5F5F5F5F5F5F5F5F5F5F5F5F5F5F5F5F5F5F5F5F5F5F5F5F5F5F5F5F5F5F5F5F5F5F5F5F5F5F5F5F5F5F5F5F5F5F5F5F5F5F5F5F5F5F5F5F5F5F5F5F5F5F5F5F5F5F5F5F5F5F5F5F5F5F5F5F5F5F5F5F5F5F5F5F5F5F5F5F5F5F5F5F5F5F5F5F5F5F5F5F5F5F5F5F5F5F5F5F5F5F5F5F5F5F5F5F5E2
310
F5F5F5E2E2EFF5F5F5E2F5F5F5F5F5F5F5F5F5F5F5F5F5F5F5F5F5F5F5F5F5F5F5F5F5F5F5F5F5F5F5F5F5F5F5F5F5F5F5F5F5F5F5F5F5F5F5F5F5F5F5F5F5F5F5F5F5F5F5F5F5F5F5F5F5F5F5F5F5F5F5F5F5F5F5F5F5F5F5F5F5F5F5F5F5F5F5F5F5F5F5F5F5F5F5F5F5F5F5F5F5F5F5F5F5F5F5F5F5F5F5F5F5F5F5F5F5
310
F5F5F5F5F5F5F5F5F5F5F5F5F5F5F5F5F5F5F5F5F5F5F5F5F5F5F5F5F5F5F5F5F5F5F5F5F5F5F5F5F5F5F5F5F5F5F5F5F5F5F5F5E2F5F5F5E2E2EFF5F5F5E2F5F5F5F5F5F5F5F5F5F5F5F5F5F5F5F5F5F5F5F5F5F5F5F5F5F5F5F5F5F5F5F5F5F5F5F5F5F5F5F5F5F5F5F5F5F5F5F5F5F5F5F5F5F5F5F5F5F5F5F5F5F5F5F5
310
F5F5F5F5F5F5F5F5F5F5F5F5F5F5F5F5F5F5F5F5F5F5F5F5F5F5F5F5F5F5F5F5F5F5F5F5F5F5F5F5F5F5F5F5F5F5F5F5F5F5F5F5F5F5F5F5F5F5F5F5F5F5F5F5F5F5F5F5F5F5F5F5F5F5F5F5F5F5F5F5F5F5F5F5F5F5F5F5F5F5F5F5F5F5F5F5F5F5F5F5F5F5F5F5F5E2F5F5F5E2E2EFF5F5F5E2F5F5F5F5F5F5F5F5F5F5F5
310
F5F5F5F5F5F5F5F5F5F5F5F5F5F5F5F5F5F5F5F5F5F5F5F5F5F5F5F5F5F5F5F5F5F5F5F5F5F5F5F5F5F5F5F5F5F5F5F5F5F5F5F5F5F5F5F5F5F5F5F5F5F5F5F5F5F5F5F5F5F5F5F5F5F5F5F5F5F5F5F5F5F5F5F5F5F5F5F5F5F5F5F5F5F5F5F5F5F5F5F5F5F5F5F5F5F5F5F5F5F5F5F5F5F5F5F5F5F5F5F5F5F5F5F5F5F5F5
310
F5F5F5F5F5F5F5F5F5F5F5F5F5F5F5F5F5F5F5F5F5F5F5F5F5F5F5F5F5F5F5E2F5F5F5E2E2EFF5F5F5E2E2E2E2E2E2E2E2F5F5F5F5F5F5F5F5F5E2E2E2E2E2E2E2E2E2E2E2E2E2E2E2E2F5F5F5F5F5F5F5F5E2E2E2E2E2E2E2E2E2E2E2E2E2E2E2E2F5F5F5F5F5F5F5F5F5E2E2E2E2E2E2E2E2E2E2E2E2E2E2E2F5F5F5F5F5
310
F5F5F5F5E2E2E2E2E2E2E2E2E2E2E2E2E2E2E2F5F5F5F5F5F5F5F5F5E2E2E2E2E2E2E2E2E2E2E2E2E2E2E2E2F5F5F5F5F5F5F5F5E2E2E2E2E2E2E2E2E2E2E2E2E2E2E2E2F5F5F5F5F5F5F5F5F5E2E2E2E2E2E2E2E2F5F5F5E2E2EFF5F5F5F5F5F5F5F5F5F5F5F5F5F5F5F5F5F5F5F5F5F5F5F5F5F5F5F5F5F5F5F5F5F5F5F5
310
F5F5F5F5F5F5F5F5F5F5F5F5F5F5F5F5F5F5F5F5F5F5F5F5F5F5F5F5F5F5F5F5F5F5F5F5F5F5F5F5F5F5F5F5F5F5F5F5F5F5F5F5F5F5F5F5F5F5F5F5F5F5F5F5F5F5F5F5F5F5F5F5F5F5F5F5F5F5F5F5F5F5F5F5F5F5F5F5F5F5F5F5F5F5F5F5F5F5F5F5F5F5F5F5F5F5F5F5F5F5F5F5F5F5F5F5F5F5F5F5F5F5F5F5F5F5F5
310
F5F5F5F5F5F5F5F5F5F5F5F5F5F5E2E2EFF5F5F5F5F5F5F5F5F5F5F5F5F5F5F5F5F5F5F5F5F5F5F5F5F5F5F5F5F5F5F5F5F5F5F5F5F5F5F5F5F5F5F5F5F5F5F5F5F5F5F5F5F5F5F5F5F5F5F5F5F5F5F5F5F5F5F5F5F5F5F5F5F5F5F5F5F5F5F5F5F5F5F5F5F5F5F5F5F5F5F5F5F5F5F5F5F5F5F5F5F5F5F5F5F5F5F5F5F5F5
310
F5F5F5F5F5F5F5F5F5F5F5F5F5F5F5F5F5F5F5F5F5F5F5F5F5F5F5F5F5F5F5F5F5F5F5F5F5F5F5F5F5F5F5F5F5F5F5F5F5F5F5F5F5F5F5F5F5F5F5F5F5F5F5F5F5F5F5E2EFEFF5F5F5F5F5F5F5F5F5F5F5F5F5F5F5F5F5F5F5F5F5F5F5F5F5F5F5F5F5F5F5F5F5F5F5F5F5F5F5F5F5F5F5F5F5F5F5F5F5F5F5F5F5F5F5F5F5
310
F5F5F5F5F5F5F5F5F5F5F5F5F5F5F5F5F5F5F5F5F5F5F5F5F5F5F5F5F5F5F5F5F5F5F5F5F5F5F5F5F5F5F5F5F5F5F5F5F5F5F5F5F5F5F5F5F5F5F5F5F5F5F5F5F5F5F5F5F5F5F5F5F5F5F5F5F5F5F5F5F5F5F5F5F5F5F5F5F5F5F5F5F5F5F5F5F5F5F5F5F5F5F5F5F5F5F5F5F5F5F5F5F5F5F5F5F5F5F5F5E2EFEFE2E2E2E2
310
E2E2E2E2E2E2E2E2E2E2E2E2E2E2E2E2E2E2E2E2E2E2E2E2E2E2E2E2E2E2E2E2E2E2E2E2E2E2E2E2E2E2E2E2E2E2E2E2E2E2E2E2E2E2E2E2E2E2E2E2E2E2E2E2E2E2E2E2E2E2E2E2E2E2E2E2E2E2E2E2E2E2E2E2E2E2E2E2E2E2E2E2E2E2E2E2E2E2E2E2E2E2E2E2E2E2E2E2E2E2E2E2E2E2E2E2E2E2E2E2E2E2E2E2E2E2E2
310
E2E2E2E2E2E2E2E2E2E2E2E2E2E2E2E2E2E2E2E2E2E2E2E2E2E2E2E2E2E2E2E2E2E2E2E2E2E2E2E2E2E2E2E2E2E2E2EFEF
  0
XRECORD
  5
1445
102
{ACAD_REACTORS
330
1444
102
}
330
1444
100
AcDbXrecord
280
     1
270
     1
271
     1
  0
XRECORD
  5
1446
102
{ACAD_REACTORS
330
1444
102
}
330
1444
100
AcDbXrecord
280
     1
270
     1
271
     1
  0
XRECORD
  5
1447
102
{ACAD_REACTORS
330
1444
102
}
330
1444
100
AcDbXrecord
280
     1
270
     1
271
     1
  0
XRECORD
  5
1448
102
{ACAD_REACTORS
330
1444
102
}
330
1444
100
AcDbXrecord
280
     1
270
     1
271
     1
  0
XRECORD
  5
1449
102
{ACAD_REACTORS
330
1444
102
}
330
1444
100
AcDbXrecord
280
     1
270
     1
271
     1
  0
XRECORD
  5
144A
102
{ACAD_REACTORS
330
1444
102
}
330
1444
100
AcDbXrecord
280
     1
270
     1
271
     1
  0
XRECORD
  5
143D
102
{ACAD_REACTORS
330
143C
102
}
330
143C
100
AcDbXrecord
280
     1
270
     1
271
     1
  0
XRECORD
  5
143E
102
{ACAD_REACTORS
330
143C
102
}
330
143C
100
AcDbXrecord
280
     1
270
     1
271
     1
  0
XRECORD
  5
143F
102
{ACAD_REACTORS
330
143C
102
}
330
143C
100
AcDbXrecord
280
     1
270
     1
271
     1
  0
XRECORD
  5
1440
102
{ACAD_REACTORS
330
143C
102
}
330
143C
100
AcDbXrecord
280
     1
270
     1
271
     1
  0
XRECORD
  5
1441
102
{ACAD_REACTORS
330
143C
102
}
330
143C
100
AcDbXrecord
280
     1
270
     1
271
     1
  0
XRECORD
  5
1442
102
{ACAD_REACTORS
330
143C
102
}
330
143C
100
AcDbXrecord
280
     1
270
     1
271
     1
  0
XRECORD
  5
1413
102
{ACAD_REACTORS
330
1412
102
}
330
1412
100
AcDbXrecord
280
     1
270
     1
271
     1
  0
XRECORD
  5
1414
102
{ACAD_REACTORS
330
1412
102
}
330
1412
100
AcDbXrecord
280
     1
270
     1
271
     1
  0
XRECORD
  5
1415
102
{ACAD_REACTORS
330
1412
102
}
330
1412
100
AcDbXrecord
280
     1
270
     1
271
     1
  0
XRECORD
  5
1416
102
{ACAD_REACTORS
330
1412
102
}
330
1412
100
AcDbXrecord
280
     1
270
     1
271
     1
  0
XRECORD
  5
1417
102
{ACAD_REACTORS
330
1412
102
}
330
1412
100
AcDbXrecord
280
     1
270
     1
271
     1
  0
XRECORD
  5
1418
102
{ACAD_REACTORS
330
1412
102
}
330
1412
100
AcDbXrecord
280
     1
270
     1
271
     1
  0
CELLSTYLEMAP
  5
14F5
102
{ACAD_REACTORS
330
1480
102
}
330
1480
100
AcDbCellStyleMap
 90
        3
300
CELLSTYLE
  1
TABLEFORMAT_BEGIN
 90
        5
170
     1
 91
        0
 92
    32768
 62
   257
 93
        1
300
CONTENTFORMAT
  1
CONTENTFORMAT_BEGIN
 90
        0
 91
        0
 92
        4
 93
        0
300

 40
0.0
140
1.0
 94
        5
 62
     0
340
1428
144
0.25
309
CONTENTFORMAT_END
171
     1
301
MARGIN
  1
CELLMARGIN_BEGIN
 40
0.06
 40
0.06
 40
0.06
 40
0.06
 40
0.18
 40
0.18
309
CELLMARGIN_END
 94
        6
 95
        1
302
GRIDFORMAT
  1
GRIDFORMAT_BEGIN
 90
        0
 91
        1
 62
     0
 92
       -2
340
0
 93
        0
 40
0.045
309
GRIDFORMAT_END
 95
        2
302
GRIDFORMAT
  1
GRIDFORMAT_BEGIN
 90
        0
 91
        1
 62
     0
 92
       -2
340
0
 93
        0
 40
0.045
309
GRIDFORMAT_END
 95
        4
302
GRIDFORMAT
  1
GRIDFORMAT_BEGIN
 90
        0
 91
        1
 62
     0
 92
       -2
340
0
 93
        0
 40
0.045
309
GRIDFORMAT_END
 95
        8
302
GRIDFORMAT
  1
GRIDFORMAT_BEGIN
 90
        0
 91
        1
 62
     0
 92
       -2
340
0
 93
        0
 40
0.045
309
GRIDFORMAT_END
 95
       16
302
GRIDFORMAT
  1
GRIDFORMAT_BEGIN
 90
        0
 91
        1
 62
     0
 92
       -2
340
0
 93
        0
 40
0.045
309
GRIDFORMAT_END
 95
       32
302
GRIDFORMAT
  1
GRIDFORMAT_BEGIN
 90
        0
 91
        1
 62
     0
 92
       -2
340
0
 93
        0
 40
0.045
309
GRIDFORMAT_END
309
TABLEFORMAT_END
  1
CELLSTYLE_BEGIN
 90
        1
 91
        1
300
_TITLE
309
CELLSTYLE_END
300
CELLSTYLE
  1
TABLEFORMAT_BEGIN
 90
        5
170
     1
 91
        0
 92
        0
 62
   257
 93
        1
300
CONTENTFORMAT
  1
CONTENTFORMAT_BEGIN
 90
        0
 91
        0
 92
        4
 93
        0
300

 40
0.0
140
1.0
 94
        5
 62
     0
340
1428
144
0.18
309
CONTENTFORMAT_END
171
     1
301
MARGIN
  1
CELLMARGIN_BEGIN
 40
0.06
 40
0.06
 40
0.06
 40
0.06
 40
0.18
 40
0.18
309
CELLMARGIN_END
 94
        6
 95
        1
302
GRIDFORMAT
  1
GRIDFORMAT_BEGIN
 90
        0
 91
        1
 62
     0
 92
       -2
340
0
 93
        0
 40
0.045
309
GRIDFORMAT_END
 95
        2
302
GRIDFORMAT
  1
GRIDFORMAT_BEGIN
 90
        0
 91
        1
 62
     0
 92
       -2
340
0
 93
        0
 40
0.045
309
GRIDFORMAT_END
 95
        4
302
GRIDFORMAT
  1
GRIDFORMAT_BEGIN
 90
        0
 91
        1
 62
     0
 92
       -2
340
0
 93
        0
 40
0.045
309
GRIDFORMAT_END
 95
        8
302
GRIDFORMAT
  1
GRIDFORMAT_BEGIN
 90
        0
 91
        1
 62
     0
 92
       -2
340
0
 93
        0
 40
0.045
309
GRIDFORMAT_END
 95
       16
302
GRIDFORMAT
  1
GRIDFORMAT_BEGIN
 90
        0
 91
        1
 62
     0
 92
       -2
340
0
 93
        0
 40
0.045
309
GRIDFORMAT_END
 95
       32
302
GRIDFORMAT
  1
GRIDFORMAT_BEGIN
 90
        0
 91
        1
 62
     0
 92
       -2
340
0
 93
        0
 40
0.045
309
GRIDFORMAT_END
309
TABLEFORMAT_END
  1
CELLSTYLE_BEGIN
 90
        2
 91
        1
300
_HEADER
309
CELLSTYLE_END
300
CELLSTYLE
  1
TABLEFORMAT_BEGIN
 90
        5
170
     1
 91
        0
 92
        0
 62
   257
 93
        1
300
CONTENTFORMAT
  1
CONTENTFORMAT_BEGIN
 90
        0
 91
        0
 92
        4
 93
        0
300

 40
0.0
140
1.0
 94
        2
 62
     0
340
1428
144
0.18
309
CONTENTFORMAT_END
171
     1
301
MARGIN
  1
CELLMARGIN_BEGIN
 40
0.06
 40
0.06
 40
0.06
 40
0.06
 40
0.18
 40
0.18
309
CELLMARGIN_END
 94
        6
 95
        1
302
GRIDFORMAT
  1
GRIDFORMAT_BEGIN
 90
        0
 91
        1
 62
     0
 92
       -2
340
0
 93
        0
 40
0.045
309
GRIDFORMAT_END
 95
        2
302
GRIDFORMAT
  1
GRIDFORMAT_BEGIN
 90
        0
 91
        1
 62
     0
 92
       -2
340
0
 93
        0
 40
0.045
309
GRIDFORMAT_END
 95
        4
302
GRIDFORMAT
  1
GRIDFORMAT_BEGIN
 90
        0
 91
        1
 62
     0
 92
       -2
340
0
 93
        0
 40
0.045
309
GRIDFORMAT_END
 95
        8
302
GRIDFORMAT
  1
GRIDFORMAT_BEGIN
 90
        0
 91
        1
 62
     0
 92
       -2
340
0
 93
        0
 40
0.045
309
GRIDFORMAT_END
 95
       16
302
GRIDFORMAT
  1
GRIDFORMAT_BEGIN
 90
        0
 91
        1
 62
     0
 92
       -2
340
0
 93
        0
 40
0.045
309
GRIDFORMAT_END
 95
       32
302
GRIDFORMAT
  1
GRIDFORMAT_BEGIN
 90
        0
 91
        1
 62
     0
 92
       -2
340
0
 93
        0
 40
0.045
309
GRIDFORMAT_END
309
TABLEFORMAT_END
  1
CELLSTYLE_BEGIN
 90
        3
 91
        2
300
_DATA
309
CELLSTYLE_END
  0
XRECORD
  5
14F8
102
{ACAD_REACTORS
330
14F7
102
}
330
14F7
100
AcDbXrecord
280
     1
102
RTVSPropertyOp0
 70
     1
102
RTVSPropertyOp1
 70
     1
102
RTVSPropertyOp2
 70
     1
102
RTVSPropertyOp3
 70
     1
102
RTVSPropertyOp4
 70
     1
102
RTVSPropertyOp5
 70
     1
102
RTVSPropertyOp6
 70
     1
102
RTVSPropertyOp7
 70
     1
102
RTVSPropertyOp8
 70
     1
102
RTVSPropertyOp9
 70
     1
102
RTVSPropertyOp10
 70
     1
102
RTVSPropertyOp11
 70
     1
102
RTVSPropertyOp12
 70
     1
102
RTVSPropertyOp13
 70
     1
102
RTVSPropertyOp14
 70
     1
102
RTVSPropertyOp15
 70
     1
102
RTVSPropertyOp16
 70
     1
102
RTVSPropertyOp17
 70
     1
102
RTVSPropertyOp18
 70
     1
102
RTVSPropertyOp19
 70
     1
102
RTVSPropertyOp20
 70
     1
102
RTVSPropertyOp21
 70
     1
102
RTVSPropertyOp22
 70
     1
102
RTVSPropertyOp23
 70
     1
102
RTVSPropertyOp24
 70
     1
102
RTVSPropertyOp25
 70
     1
102
RTVSPropertyOp26
 70
     1
102
RTVSPropertyOp27
 70
     1
  0
XRECORD
  5
1508
102
{ACAD_REACTORS
330
1507
102
}
330
1507
100
AcDbXrecord
280
     1
102
RTVSPropertyOp0
 70
     1
102
RTVSPropertyOp1
 70
     1
102
RTVSPropertyOp2
 70
     1
102
RTVSPropertyOp3
 70
     1
102
RTVSPropertyOp4
 70
     1
102
RTVSPropertyOp5
 70
     1
102
RTVSPropertyOp6
 70
     1
102
RTVSPropertyOp7
 70
     1
102
RTVSPropertyOp8
 70
     1
102
RTVSPropertyOp9
 70
     1
102
RTVSPropertyOp10
 70
     1
102
RTVSPropertyOp11
 70
     1
102
RTVSPropertyOp12
 70
     1
102
RTVSPropertyOp13
 70
     1
102
RTVSPropertyOp14
 70
     1
102
RTVSPropertyOp15
 70
     1
102
RTVSPropertyOp16
 70
     1
102
RTVSPropertyOp17
 70
     1
102
RTVSPropertyOp18
 70
     1
102
RTVSPropertyOp19
 70
     1
102
RTVSPropertyOp20
 70
     1
102
RTVSPropertyOp21
 70
     1
102
RTVSPropertyOp22
 70
     1
102
RTVSPropertyOp23
 70
     1
102
RTVSPropertyOp24
 70
     1
102
RTVSPropertyOp25
 70
     1
102
RTVSPropertyOp26
 70
     1
102
RTVSPropertyOp27
 70
     1
  0
XRECORD
  5
14FC
102
{ACAD_REACTORS
330
14FB
102
}
330
14FB
100
AcDbXrecord
280
     1
102
RTVSPropertyOp0
 70
     1
102
RTVSPropertyOp1
 70
     1
102
RTVSPropertyOp2
 70
     1
102
RTVSPropertyOp3
 70
     1
102
RTVSPropertyOp4
 70
     1
102
RTVSPropertyOp5
 70
     1
102
RTVSPropertyOp6
 70
     1
102
RTVSPropertyOp7
 70
     1
102
RTVSPropertyOp8
 70
     1
102
RTVSPropertyOp9
 70
     1
102
RTVSPropertyOp10
 70
     1
102
RTVSPropertyOp11
 70
     1
102
RTVSPropertyOp12
 70
     1
102
RTVSPropertyOp13
 70
     1
102
RTVSPropertyOp14
 70
     1
102
RTVSPropertyOp15
 70
     1
102
RTVSPropertyOp16
 70
     1
102
RTVSPropertyOp17
 70
     1
102
RTVSPropertyOp18
 70
     1
102
RTVSPropertyOp19
 70
     1
102
RTVSPropertyOp20
 70
     1
102
RTVSPropertyOp21
 70
     1
102
RTVSPropertyOp22
 70
     1
102
RTVSPropertyOp23
 70
     1
102
RTVSPropertyOp24
 70
     1
102
RTVSPropertyOp25
 70
     1
102
RTVSPropertyOp26
 70
     1
102
RTVSPropertyOp27
 70
     1
  0
XRECORD
  5
1506
102
{ACAD_REACTORS
330
1505
102
}
330
1505
100
AcDbXrecord
280
     1
102
RTVSPropertyOp0
 70
     1
102
RTVSPropertyOp1
 70
     1
102
RTVSPropertyOp2
 70
     1
102
RTVSPropertyOp3
 70
     1
102
RTVSPropertyOp4
 70
     1
102
RTVSPropertyOp5
 70
     1
102
RTVSPropertyOp6
 70
     1
102
RTVSPropertyOp7
 70
     1
102
RTVSPropertyOp8
 70
     1
102
RTVSPropertyOp9
 70
     1
102
RTVSPropertyOp10
 70
     1
102
RTVSPropertyOp11
 70
     1
102
RTVSPropertyOp12
 70
     1
102
RTVSPropertyOp13
 70
     1
102
RTVSPropertyOp14
 70
     1
102
RTVSPropertyOp15
 70
     1
102
RTVSPropertyOp16
 70
     1
102
RTVSPropertyOp17
 70
     1
102
RTVSPropertyOp18
 70
     1
102
RTVSPropertyOp19
 70
     1
102
RTVSPropertyOp20
 70
     1
102
RTVSPropertyOp21
 70
     1
102
RTVSPropertyOp22
 70
     1
102
RTVSPropertyOp23
 70
     1
102
RTVSPropertyOp24
 70
     1
102
RTVSPropertyOp25
 70
     1
102
RTVSPropertyOp26
 70
     1
102
RTVSPropertyOp27
 70
     1
  0
XRECORD
  5
150E
102
{ACAD_REACTORS
330
150D
102
}
330
150D
100
AcDbXrecord
280
     1
102
RTVSPropertyOp0
 70
     1
102
RTVSPropertyOp1
 70
     1
102
RTVSPropertyOp2
 70
     1
102
RTVSPropertyOp3
 70
     1
102
RTVSPropertyOp4
 70
     1
102
RTVSPropertyOp5
 70
     1
102
RTVSPropertyOp6
 70
     1
102
RTVSPropertyOp7
 70
     1
102
RTVSPropertyOp8
 70
     1
102
RTVSPropertyOp9
 70
     1
102
RTVSPropertyOp10
 70
     1
102
RTVSPropertyOp11
 70
     1
102
RTVSPropertyOp12
 70
     1
102
RTVSPropertyOp13
 70
     1
102
RTVSPropertyOp14
 70
     1
102
RTVSPropertyOp15
 70
     1
102
RTVSPropertyOp16
 70
     1
102
RTVSPropertyOp17
 70
     1
102
RTVSPropertyOp18
 70
     1
102
RTVSPropertyOp19
 70
     1
102
RTVSPropertyOp20
 70
     1
102
RTVSPropertyOp21
 70
     1
102
RTVSPropertyOp22
 70
     1
102
RTVSPropertyOp23
 70
     1
102
RTVSPropertyOp24
 70
     1
102
RTVSPropertyOp25
 70
     1
102
RTVSPropertyOp26
 70
     1
102
RTVSPropertyOp27
 70
     1
  0
XRECORD
  5
1516
102
{ACAD_REACTORS
330
1515
102
}
330
1515
100
AcDbXrecord
280
     1
102
RTVSPropertyOp0
 70
     1
102
RTVSPropertyOp1
 70
     1
102
RTVSPropertyOp2
 70
     1
102
RTVSPropertyOp3
 70
     1
102
RTVSPropertyOp4
 70
     1
102
RTVSPropertyOp5
 70
     1
102
RTVSPropertyOp6
 70
     1
102
RTVSPropertyOp7
 70
     1
102
RTVSPropertyOp8
 70
     1
102
RTVSPropertyOp9
 70
     1
102
RTVSPropertyOp10
 70
     1
102
RTVSPropertyOp11
 70
     1
102
RTVSPropertyOp12
 70
     1
102
RTVSPropertyOp13
 70
     1
102
RTVSPropertyOp14
 70
     1
102
RTVSPropertyOp15
 70
     1
102
RTVSPropertyOp16
 70
     1
102
RTVSPropertyOp17
 70
     1
102
RTVSPropertyOp18
 70
     1
102
RTVSPropertyOp19
 70
     1
102
RTVSPropertyOp20
 70
     1
102
RTVSPropertyOp21
 70
     1
102
RTVSPropertyOp22
 70
     1
102
RTVSPropertyOp23
 70
     1
102
RTVSPropertyOp24
 70
     1
102
RTVSPropertyOp25
 70
     1
102
RTVSPropertyOp26
 70
     1
102
RTVSPropertyOp27
 70
     1
  0
XRECORD
  5
150A
102
{ACAD_REACTORS
330
1509
102
}
330
1509
100
AcDbXrecord
280
     1
102
RTVSPropertyOp0
 70
     1
102
RTVSPropertyOp1
 70
     1
102
RTVSPropertyOp2
 70
     1
102
RTVSPropertyOp3
 70
     1
102
RTVSPropertyOp4
 70
     1
102
RTVSPropertyOp5
 70
     1
102
RTVSPropertyOp6
 70
     1
102
RTVSPropertyOp7
 70
     1
102
RTVSPropertyOp8
 70
     1
102
RTVSPropertyOp9
 70
     1
102
RTVSPropertyOp10
 70
     1
102
RTVSPropertyOp11
 70
     1
102
RTVSPropertyOp12
 70
     1
102
RTVSPropertyOp13
 70
     1
102
RTVSPropertyOp14
 70
     1
102
RTVSPropertyOp15
 70
     1
102
RTVSPropertyOp16
 70
     1
102
RTVSPropertyOp17
 70
     1
102
RTVSPropertyOp18
 70
     1
102
RTVSPropertyOp19
 70
     1
102
RTVSPropertyOp20
 70
     1
102
RTVSPropertyOp21
 70
     1
102
RTVSPropertyOp22
 70
     1
102
RTVSPropertyOp23
 70
     1
102
RTVSPropertyOp24
 70
     1
102
RTVSPropertyOp25
 70
     1
102
RTVSPropertyOp26
 70
     1
102
RTVSPropertyOp27
 70
     1
  0
XRECORD
  5
150C
102
{ACAD_REACTORS
330
150B
102
}
330
150B
100
AcDbXrecord
280
     1
102
RTVSPropertyOp0
 70
     1
102
RTVSPropertyOp1
 70
     1
102
RTVSPropertyOp2
 70
     1
102
RTVSPropertyOp3
 70
     1
102
RTVSPropertyOp4
 70
     1
102
RTVSPropertyOp5
 70
     1
102
RTVSPropertyOp6
 70
     1
102
RTVSPropertyOp7
 70
     1
102
RTVSPropertyOp8
 70
     1
102
RTVSPropertyOp9
 70
     1
102
RTVSPropertyOp10
 70
     1
102
RTVSPropertyOp11
 70
     1
102
RTVSPropertyOp12
 70
     1
102
RTVSPropertyOp13
 70
     1
102
RTVSPropertyOp14
 70
     1
102
RTVSPropertyOp15
 70
     1
102
RTVSPropertyOp16
 70
     1
102
RTVSPropertyOp17
 70
     1
102
RTVSPropertyOp18
 70
     1
102
RTVSPropertyOp19
 70
     1
102
RTVSPropertyOp20
 70
     1
102
RTVSPropertyOp21
 70
     1
102
RTVSPropertyOp22
 70
     1
102
RTVSPropertyOp23
 70
     1
102
RTVSPropertyOp24
 70
     1
102
RTVSPropertyOp25
 70
     1
102
RTVSPropertyOp26
 70
     1
102
RTVSPropertyOp27
 70
     1
  0
XRECORD
  5
151C
102
{ACAD_REACTORS
330
151B
102
}
330
151B
100
AcDbXrecord
280
     1
102
RTVSPropertyOp0
 70
     0
102
RTVSPropertyOp1
 70
     0
102
RTVSPropertyOp2
 70
     0
102
RTVSPropertyOp3
 70
     0
102
RTVSPropertyOp4
 70
     0
102
RTVSPropertyOp5
 70
     0
102
RTVSPropertyOp6
 70
     0
102
RTVSPropertyOp7
 70
     0
102
RTVSPropertyOp8
 70
     0
102
RTVSPropertyOp9
 70
     0
102
RTVSPropertyOp10
 70
     0
102
RTVSPropertyOp11
 70
     0
102
RTVSPropertyOp12
 70
     0
102
RTVSPropertyOp13
 70
     0
102
RTVSPropertyOp14
 70
     2
102
RTVSPropertyOp15
 70
     0
102
RTVSPropertyOp16
 70
     0
102
RTVSPropertyOp17
 70
     0
102
RTVSPropertyOp18
 70
     0
102
RTVSPropertyOp19
 70
     0
102
RTVSPropertyOp20
 70
     0
102
RTVSPropertyOp21
 70
     0
102
RTVSPropertyOp22
 70
     0
102
RTVSPropertyOp23
 70
     0
102
RTVSPropertyOp24
 70
     0
102
RTVSPropertyOp25
 70
     0
102
RTVSPropertyOp26
 70
     0
102
RTVSPropertyOp27
 70
     0
  0
XRECORD
  5
1514
102
{ACAD_REACTORS
330
1513
102
}
330
1513
100
AcDbXrecord
280
     1
102
RTVSPropertyOp0
 70
     1
102
RTVSPropertyOp1
 70
     1
102
RTVSPropertyOp2
 70
     1
102
RTVSPropertyOp3
 70
     1
102
RTVSPropertyOp4
 70
     1
102
RTVSPropertyOp5
 70
     1
102
RTVSPropertyOp6
 70
     1
102
RTVSPropertyOp7
 70
     1
102
RTVSPropertyOp8
 70
     1
102
RTVSPropertyOp9
 70
     1
102
RTVSPropertyOp10
 70
     1
102
RTVSPropertyOp11
 70
     1
102
RTVSPropertyOp12
 70
     1
102
RTVSPropertyOp13
 70
     1
102
RTVSPropertyOp14
 70
     1
102
RTVSPropertyOp15
 70
     1
102
RTVSPropertyOp16
 70
     1
102
RTVSPropertyOp17
 70
     1
102
RTVSPropertyOp18
 70
     1
102
RTVSPropertyOp19
 70
     1
102
RTVSPropertyOp20
 70
     1
102
RTVSPropertyOp21
 70
     1
102
RTVSPropertyOp22
 70
     1
102
RTVSPropertyOp23
 70
     1
102
RTVSPropertyOp24
 70
     1
102
RTVSPropertyOp25
 70
     1
102
RTVSPropertyOp26
 70
     1
102
RTVSPropertyOp27
 70
     1
  0
XRECORD
  5
14FE
102
{ACAD_REACTORS
330
14FD
102
}
330
14FD
100
AcDbXrecord
280
     1
102
RTVSPropertyOp0
 70
     1
102
RTVSPropertyOp1
 70
     1
102
RTVSPropertyOp2
 70
     1
102
RTVSPropertyOp3
 70
     1
102
RTVSPropertyOp4
 70
     1
102
RTVSPropertyOp5
 70
     1
102
RTVSPropertyOp6
 70
     1
102
RTVSPropertyOp7
 70
     1
102
RTVSPropertyOp8
 70
     1
102
RTVSPropertyOp9
 70
     1
102
RTVSPropertyOp10
 70
     1
102
RTVSPropertyOp11
 70
     1
102
RTVSPropertyOp12
 70
     1
102
RTVSPropertyOp13
 70
     1
102
RTVSPropertyOp14
 70
     1
102
RTVSPropertyOp15
 70
     1
102
RTVSPropertyOp16
 70
     1
102
RTVSPropertyOp17
 70
     1
102
RTVSPropertyOp18
 70
     1
102
RTVSPropertyOp19
 70
     1
102
RTVSPropertyOp20
 70
     1
102
RTVSPropertyOp21
 70
     1
102
RTVSPropertyOp22
 70
     1
102
RTVSPropertyOp23
 70
     1
102
RTVSPropertyOp24
 70
     1
102
RTVSPropertyOp25
 70
     1
102
RTVSPropertyOp26
 70
     1
102
RTVSPropertyOp27
 70
     1
  0
XRECORD
  5
1500
102
{ACAD_REACTORS
330
14FF
102
}
330
14FF
100
AcDbXrecord
280
     1
102
RTVSPropertyOp0
 70
     1
102
RTVSPropertyOp1
 70
     1
102
RTVSPropertyOp2
 70
     1
102
RTVSPropertyOp3
 70
     1
102
RTVSPropertyOp4
 70
     1
102
RTVSPropertyOp5
 70
     1
102
RTVSPropertyOp6
 70
     1
102
RTVSPropertyOp7
 70
     1
102
RTVSPropertyOp8
 70
     1
102
RTVSPropertyOp9
 70
     1
102
RTVSPropertyOp10
 70
     1
102
RTVSPropertyOp11
 70
     1
102
RTVSPropertyOp12
 70
     1
102
RTVSPropertyOp13
 70
     1
102
RTVSPropertyOp14
 70
     1
102
RTVSPropertyOp15
 70
     1
102
RTVSPropertyOp16
 70
     1
102
RTVSPropertyOp17
 70
     1
102
RTVSPropertyOp18
 70
     1
102
RTVSPropertyOp19
 70
     1
102
RTVSPropertyOp20
 70
     1
102
RTVSPropertyOp21
 70
     1
102
RTVSPropertyOp22
 70
     1
102
RTVSPropertyOp23
 70
     1
102
RTVSPropertyOp24
 70
     1
102
RTVSPropertyOp25
 70
     1
102
RTVSPropertyOp26
 70
     1
102
RTVSPropertyOp27
 70
     1
  0
XRECORD
  5
1502
102
{ACAD_REACTORS
330
1501
102
}
330
1501
100
AcDbXrecord
280
     1
102
RTVSPropertyOp0
 70
     1
102
RTVSPropertyOp1
 70
     1
102
RTVSPropertyOp2
 70
     1
102
RTVSPropertyOp3
 70
     1
102
RTVSPropertyOp4
 70
     1
102
RTVSPropertyOp5
 70
     1
102
RTVSPropertyOp6
 70
     1
102
RTVSPropertyOp7
 70
     1
102
RTVSPropertyOp8
 70
     1
102
RTVSPropertyOp9
 70
     1
102
RTVSPropertyOp10
 70
     1
102
RTVSPropertyOp11
 70
     1
102
RTVSPropertyOp12
 70
     1
102
RTVSPropertyOp13
 70
     1
102
RTVSPropertyOp14
 70
     1
102
RTVSPropertyOp15
 70
     1
102
RTVSPropertyOp16
 70
     1
102
RTVSPropertyOp17
 70
     1
102
RTVSPropertyOp18
 70
     1
102
RTVSPropertyOp19
 70
     1
102
RTVSPropertyOp20
 70
     1
102
RTVSPropertyOp21
 70
     1
102
RTVSPropertyOp22
 70
     1
102
RTVSPropertyOp23
 70
     1
102
RTVSPropertyOp24
 70
     1
102
RTVSPropertyOp25
 70
     1
102
RTVSPropertyOp26
 70
     1
102
RTVSPropertyOp27
 70
     1
  0
XRECORD
  5
1504
102
{ACAD_REACTORS
330
1503
102
}
330
1503
100
AcDbXrecord
280
     1
102
RTVSPropertyOp0
 70
     1
102
RTVSPropertyOp1
 70
     1
102
RTVSPropertyOp2
 70
     1
102
RTVSPropertyOp3
 70
     1
102
RTVSPropertyOp4
 70
     1
102
RTVSPropertyOp5
 70
     1
102
RTVSPropertyOp6
 70
     1
102
RTVSPropertyOp7
 70
     1
102
RTVSPropertyOp8
 70
     1
102
RTVSPropertyOp9
 70
     1
102
RTVSPropertyOp10
 70
     1
102
RTVSPropertyOp11
 70
     1
102
RTVSPropertyOp12
 70
     1
102
RTVSPropertyOp13
 70
     1
102
RTVSPropertyOp14
 70
     1
102
RTVSPropertyOp15
 70
     1
102
RTVSPropertyOp16
 70
     1
102
RTVSPropertyOp17
 70
     1
102
RTVSPropertyOp18
 70
     1
102
RTVSPropertyOp19
 70
     1
102
RTVSPropertyOp20
 70
     1
102
RTVSPropertyOp21
 70
     1
102
RTVSPropertyOp22
 70
     1
102
RTVSPropertyOp23
 70
     1
102
RTVSPropertyOp24
 70
     1
102
RTVSPropertyOp25
 70
     1
102
RTVSPropertyOp26
 70
     1
102
RTVSPropertyOp27
 70
     1
  0
XRECORD
  5
1518
102
{ACAD_REACTORS
330
1517
102
}
330
1517
100
AcDbXrecord
280
     1
102
RTVSPropertyOp0
 70
     0
102
RTVSPropertyOp1
 70
     0
102
RTVSPropertyOp2
 70
     0
102
RTVSPropertyOp3
 70
     0
102
RTVSPropertyOp4
 70
     0
102
RTVSPropertyOp5
 70
     0
102
RTVSPropertyOp6
 70
     0
102
RTVSPropertyOp7
 70
     0
102
RTVSPropertyOp8
 70
     0
102
RTVSPropertyOp9
 70
     0
102
RTVSPropertyOp10
 70
     0
102
RTVSPropertyOp11
 70
     0
102
RTVSPropertyOp12
 70
     0
102
RTVSPropertyOp13
 70
     0
102
RTVSPropertyOp14
 70
     2
102
RTVSPropertyOp15
 70
     0
102
RTVSPropertyOp16
 70
     0
102
RTVSPropertyOp17
 70
     0
102
RTVSPropertyOp18
 70
     0
102
RTVSPropertyOp19
 70
     0
102
RTVSPropertyOp20
 70
     0
102
RTVSPropertyOp21
 70
     0
102
RTVSPropertyOp22
 70
     0
102
RTVSPropertyOp23
 70
     0
102
RTVSPropertyOp24
 70
     0
102
RTVSPropertyOp25
 70
     0
102
RTVSPropertyOp26
 70
     0
102
RTVSPropertyOp27
 70
     0
  0
XRECORD
  5
1512
102
{ACAD_REACTORS
330
1511
102
}
330
1511
100
AcDbXrecord
280
     1
102
RTVSPropertyOp0
 70
     1
102
RTVSPropertyOp1
 70
     1
102
RTVSPropertyOp2
 70
     1
102
RTVSPropertyOp3
 70
     1
102
RTVSPropertyOp4
 70
     1
102
RTVSPropertyOp5
 70
     1
102
RTVSPropertyOp6
 70
     1
102
RTVSPropertyOp7
 70
     1
102
RTVSPropertyOp8
 70
     1
102
RTVSPropertyOp9
 70
     1
102
RTVSPropertyOp10
 70
     1
102
RTVSPropertyOp11
 70
     1
102
RTVSPropertyOp12
 70
     1
102
RTVSPropertyOp13
 70
     1
102
RTVSPropertyOp14
 70
     1
102
RTVSPropertyOp15
 70
     1
102
RTVSPropertyOp16
 70
     1
102
RTVSPropertyOp17
 70
     1
102
RTVSPropertyOp18
 70
     1
102
RTVSPropertyOp19
 70
     1
102
RTVSPropertyOp20
 70
     1
102
RTVSPropertyOp21
 70
     1
102
RTVSPropertyOp22
 70
     1
102
RTVSPropertyOp23
 70
     1
102
RTVSPropertyOp24
 70
     1
102
RTVSPropertyOp25
 70
     1
102
RTVSPropertyOp26
 70
     1
102
RTVSPropertyOp27
 70
     1
  0
XRECORD
  5
151A
102
{ACAD_REACTORS
330
1519
102
}
330
1519
100
AcDbXrecord
280
     1
102
RTVSPropertyOp0
 70
     0
102
RTVSPropertyOp1
 70
     0
102
RTVSPropertyOp2
 70
     0
102
RTVSPropertyOp3
 70
     0
102
RTVSPropertyOp4
 70
     0
102
RTVSPropertyOp5
 70
     0
102
RTVSPropertyOp6
 70
     0
102
RTVSPropertyOp7
 70
     0
102
RTVSPropertyOp8
 70
     0
102
RTVSPropertyOp9
 70
     0
102
RTVSPropertyOp10
 70
     0
102
RTVSPropertyOp11
 70
     0
102
RTVSPropertyOp12
 70
     0
102
RTVSPropertyOp13
 70
     0
102
RTVSPropertyOp14
 70
     2
102
RTVSPropertyOp15
 70
     0
102
RTVSPropertyOp16
 70
     0
102
RTVSPropertyOp17
 70
     0
102
RTVSPropertyOp18
 70
     0
102
RTVSPropertyOp19
 70
     0
102
RTVSPropertyOp20
 70
     0
102
RTVSPropertyOp21
 70
     0
102
RTVSPropertyOp22
 70
     0
102
RTVSPropertyOp23
 70
     0
102
RTVSPropertyOp24
 70
     0
102
RTVSPropertyOp25
 70
     0
102
RTVSPropertyOp26
 70
     0
102
RTVSPropertyOp27
 70
     0
  0
XRECORD
  5
14FA
102
{ACAD_REACTORS
330
14F9
102
}
330
14F9
100
AcDbXrecord
280
     1
102
RTVSPropertyOp0
 70
     1
102
RTVSPropertyOp1
 70
     1
102
RTVSPropertyOp2
 70
     1
102
RTVSPropertyOp3
 70
     1
102
RTVSPropertyOp4
 70
     1
102
RTVSPropertyOp5
 70
     1
102
RTVSPropertyOp6
 70
     1
102
RTVSPropertyOp7
 70
     1
102
RTVSPropertyOp8
 70
     1
102
RTVSPropertyOp9
 70
     1
102
RTVSPropertyOp10
 70
     1
102
RTVSPropertyOp11
 70
     1
102
RTVSPropertyOp12
 70
     1
102
RTVSPropertyOp13
 70
     1
102
RTVSPropertyOp14
 70
     1
102
RTVSPropertyOp15
 70
     1
102
RTVSPropertyOp16
 70
     1
102
RTVSPropertyOp17
 70
     1
102
RTVSPropertyOp18
 70
     1
102
RTVSPropertyOp19
 70
     1
102
RTVSPropertyOp20
 70
     1
102
RTVSPropertyOp21
 70
     1
102
RTVSPropertyOp22
 70
     1
102
RTVSPropertyOp23
 70
     1
102
RTVSPropertyOp24
 70
     1
102
RTVSPropertyOp25
 70
     1
102
RTVSPropertyOp26
 70
     1
102
RTVSPropertyOp27
 70
     1
  0
XRECORD
  5
1510
102
{ACAD_REACTORS
330
150F
102
}
330
150F
100
AcDbXrecord
280
     1
102
RTVSPropertyOp0
 70
     1
102
RTVSPropertyOp1
 70
     1
102
RTVSPropertyOp2
 70
     1
102
RTVSPropertyOp3
 70
     1
102
RTVSPropertyOp4
 70
     1
102
RTVSPropertyOp5
 70
     1
102
RTVSPropertyOp6
 70
     1
102
RTVSPropertyOp7
 70
     1
102
RTVSPropertyOp8
 70
     1
102
RTVSPropertyOp9
 70
     1
102
RTVSPropertyOp10
 70
     1
102
RTVSPropertyOp11
 70
     1
102
RTVSPropertyOp12
 70
     1
102
RTVSPropertyOp13
 70
     1
102
RTVSPropertyOp14
 70
     1
102
RTVSPropertyOp15
 70
     1
102
RTVSPropertyOp16
 70
     1
102
RTVSPropertyOp17
 70
     1
102
RTVSPropertyOp18
 70
     1
102
RTVSPropertyOp19
 70
     1
102
RTVSPropertyOp20
 70
     1
102
RTVSPropertyOp21
 70
     1
102
RTVSPropertyOp22
 70
     1
102
RTVSPropertyOp23
 70
     1
102
RTVSPropertyOp24
 70
     1
102
RTVSPropertyOp25
 70
     1
102
RTVSPropertyOp26
 70
     1
102
RTVSPropertyOp27
 70
     1
  0
ENDSEC
  0
EOF
